Song name
# A B C D E F G H I J K L M N O P Q R S T U V W X Y Z

Kid Cudi - Marijuana tab

---------------------------------------------------------------------------|
----------------------------------------------------------------12---------|
-------------------4----6b7------------4--6--6b7--4--6/8/11--11----13------|
---------------4--6---6-----4h6--4--6--------------------------------------|
----------4--6-------------------------------------------------------------|
-4--4--6-------------------------------------------------------------------|

---------------------------------------------------------------------------|
-15b17--12--11---------------------------------------------12/15b17--------|
---------------11--------11--11/13-13~~-----16p15--16p15------------12/14~\|
------------------13--9----------------------------------------------------|
---------------------------------------------------------------------------|
---------------------------------------------------------------------------|
Tap to rate this tab
 
# A B C D E F G H I J K L M N O P Q R S T U V W X Y Z