Kid Cudi - Revofev tab

TAB By Brandon Francis

This is my first tab but i think this is pretty accurate. It's at normal tuning. Revofev 
is 1 of my favourite songs and i enjoy playin it on guitar. Hope u do to  (:])+<

Intro:

E|-------------------------------------------------------------------|
B|-------------------------------------------------------------------|
G|-------------------------------------------------------------------|
D|-------------99----------------------------------------------------|
A|--9----77----77----55----77----9-----------------------------------|
E|--7----55----------33----55----7-----------------------------------|


Chorus:

E|-------------------------------------------------------------------|
B|-------------------------------------------------------------------|
G|------------7h9--9--7--6-------------------------------------------|
D|--7/9--9------------------9--7-------------------------------------|
A|-------------------------------------------------------------------|
E|-------------------------------------------------------------------|
Tap to rate this tab
 
# A B C D E F G H I J K L M N O P Q R S T U V W X Y Z