Kid Down - Murphys Law tab

Standart Tuning
 

Guitar 1

|---------------|
|-----8-----8---|
|-7-----9-----9-|
|---------------|
|---------------|
|---8------8----|

  
|-------------------|
|-------------------|
|-7---9------9----7-|
|-------10-----10---|
|---8------8--------|
|-------------------|

Guitar 2

|---0-3-0-0-3-0-|
|-3-1-----1-----|
|---0-----0-----|
|---2-----2-----|
|---3-----3-----|
|---------------|

|-----0-----0-----|
|-3-----1-----1-3-|
|-----------------|
|---3-----3-------|
|---3-----3-------|
|---1-----1-------|

http://www.kiddown.com/
Tap to rate this tab
 
# A B C D E F G H I J K L M N O P Q R S T U V W X Y Z