Song name
# A B C D E F G H I J K L M N O P Q R S T U V W X Y Z

Kid Dynamite - Pits And Poisoned Apples tab

Kid Dynamite Pits and Poisoned Apples

Verse
e|---------------------------------------------------------------------------|
B|---------------------------------------------------------------------------|
G|-----8---------------------------------------------------------------------|
D|--7--8---------------------------------------------------------------------|
A|--7--6---------------------------------------------------------------------|
E|--5------------------------------------------------------------------------|

Chorus
e|---------------------------------------------------------------------------|
B|---------------------------------------------------------------------------|
G|--7--12-11--12-------------------------------------------------------------|
D|--7--12-11--12--3 times-then-9---------------------------------------------|
A|--5--10--9--10---------------9---------------------------------------------|
E|-----------------------------7---------------------------------------------|

Harmonic Thing
e|---------------------------------------------------------------------------|
B|--------7------------------------------------------------------------------|
G|----5----(7)<-Might be played----------------------------------------------|
D|--7---5------7------------------All harmonics------------------------------|
A|---------------------------------------------------------------------------|
E|---------------------------------------------------------------------------|

End
e|---------------------------------------------------------------------------|
B|---------------------------------------------------------------------------|
G|--7------------------------------------------------------------------------|
D|--7--9--5---------------7--9--5--------------------------------------------|
A|--5--9--5-3 times then--7--9--5--------------------------------------------|
E|-----7--3---------------5--7--3--------------------------------------------|
Tap to rate this tab
# A B C D E F G H I J K L M N O P Q R S T U V W X Y Z