Song name
# A B C D E F G H I J K L M N O P Q R S T U V W X Y Z

Kid Dynamite - Showoff tab

-------------------------------------------------------------------------------
                                SHOW OFF - Kid Dynamite
-------------------------------------------------------------------------------


Intro
e|---------------------------------------------------------------------------|
B|---------------------------------------------------------------------------|
G|--4--6--7------------------------------------------------------------------|
D|--4--6--7--7---------------------------------------------------------------|
A|--2--4--5--7---------------------------------------------------------------|
E|-----------5---------------------------------------------------------------|

Verse
e|---------------------------------------------------------------------------|
B|---------------------------------------------------------------------------|
G|--2--6-----7---------------------------------------------------------------|
D|--2--6--5--7---------------------------------------------------------------|
A|--0--4--5--5---------------------------------------------------------------|
E|--------3------------------------------------------------------------------|

Chorus
e|---------------------------------------------------------------------------|
B|---------------------------------------------------------------------------|
G|-------------6----------7--------------------------------------------------|
D|--2-------4--6-slide to-7---then play intro back into verse----------------|
A|--2<-Mute-4--4----------5--------------------------------------------------|
E|--0-------2----------------------------------------------------------------|

End
e|---------------------------------------------------------------------------|
B|---------------------------------------------------------------------------|
G|-----6-----7--------------------------------------------------------9------|
D|--7--6--5--7--2-------4--6--7--at some point this is played instead-x------|
A|--7--4--5--5--2<-Mute-4--6--7--of the low E-------------------------7------|
E|--5-----3-----0-------2--4--5----------------------------------------------|
E|---------------------------------------------------------------------------|
At end just play the intro

 
Tap to rate this tab
# A B C D E F G H I J K L M N O P Q R S T U V W X Y Z