Song name
# A B C D E F G H I J K L M N O P Q R S T U V W X Y Z

Kid Dynamite - Wrist Rocket tab

KID DYNAMITE-WRIST ROCKET
Tabbed By Ben H (PunkAsPhuck)

Intro 
e|---------------------------------------------------------------------------| 
B|---------------------------------------------------------------------------| 
G|-9-9-9-9-9-9-9-9-9-9-9-9-9--14-14--13-13--11-11--14-14--13-13--------------| 
D|---------------------------------------------------------------------------| 
A|-7-7-7-7-7-7-7-7-7-7-7-7-7--12-12--11-11---9--9--12-12--11-11--------------| 
E|---------------------------------------------------------------------------| 

Verse (palm muted)
e|---------------------------------------------------------------------------| 
B|---------------------------------------------------------------------------| 
G|-9--9-9-9-9-----------7-7-7-7----------------------------------------------| 
D|-9--9-9-9-9--9-9-9-9--7-7-7-7--7-7-7-7-------------------------------------| 
A|-7--7-7-7-7--9-9-9-9--5-5-5-5--7-7-7-7-------------------------------------| 
E|-------------7-7-7-7-----------5-5-5-5-------------------------------------| 


Verse 2 
e|---------------------------------------------------------------------------| 
B|---------------------------------------------------------------------------| 
G|-9-9-9-9-9-9-9-9-9-9-9-9-9--14-14--13-13--11-11--14-14--13-13--------------| 
D|---------------------------------------------------------------------------| 
A|-7-7-7-7-7-7-7-7-7-7-7-7-7--12-12--11-11---9--9--12-12--11-11--------------| 
E|---------------------------------------------------------------------------| 

End 
e|---------------------------------------------------------------------------| 
B|---------------------------------------------------------------------------| 
G|-9-----------7---------------9-9-9-9-----------7-7-7-7-----------------7---| 
D|-9-----9-----7-----7---------9-9-9-9--9-9-9-9--7-7-7-7--7-7-7-7--End---7---| 
A|-7-----9-----5-----7---------7-7-7-7--9-9-9-9--5-5-5-5--7-7-7-7---on---5---| 
E|-------7-----------5------------------7-7-7-7-----------5-5-5-5------------|
Tap to rate this tab
 
# A B C D E F G H I J K L M N O P Q R S T U V W X Y Z