Song name
# A B C D E F G H I J K L M N O P Q R S T U V W X Y Z

Kid Dynamite - Bench Warmer tab

-------------------------------------------------------------------------------
                               BENCH WARMER - Kid Dynamite
-------------------------------------------------------------------------------

By:ABF

Intro/verse
e|---------------------------------------------------------------------------|
B|---------------------------------------------------------------------------|
G|--------7------------------------------------------------------------------|
D|--7-11--7------------------------------------------------------------------|
A|--7-11--5------------------------------------------------------------------|
E|--5--9---------------------------------------------------------------------|

Chorus
e|---------------------------------------------------------------------------|
B|---------------------------------------------------------------------------|
G|------------------------------------------------9--7-----------------------|
D|--9-----------7--6--2--------9-11--7------------9--7-----------------------|
A|--9-slide to--7--6--2<-Mute--9-11--7---4 times--7--5-----------------------|
E|--7-----------5--4--0--------7--9--5---------------------------------------|

End
e|---------------------------------------------------------------------------|
B|---------------------------------------------------------------------------|
G|--Mute--4-----------------------------------------------4------------------|
D|--4--6--4--4--6--2--------------------------------2--4--4------------------|
A|--4--6--2--4--6--2--repeat a number of time then--2--4--2------------------|
E|--2--4-----2--4--0--------------------------------0--2---------------------|

 
Tap to rate this tab
 
# A B C D E F G H I J K L M N O P Q R S T U V W X Y Z