Song name
# A B C D E F G H I J K L M N O P Q R S T U V W X Y Z

Kid Dynamite - Book Worm tab

Verse
e|---------------------------------------------------------------------------|
B|---------------------------------------------------------------------------|
G|--------------------9------------------------------------------------------|
D|--9--6--4--2--------9----------4-------------------------------------------|
A|--9--6--4--2--------7----------4-------------------------------------------|
E|--7--4--2--0-------------------2-------------------------------------------|
                     "Man, i gotta stop.."
Chorus
e|---------------------------------------------------------------------------|
B|---------------------------------------------------------------------------|
G|--4--------9-----------------------2---------------------------------------|
D|--4--6--7--9--6--4-----------------2--4------------------------------------|
A|--2--6--7--7--6--4--repeat until---0--4------------------------------------|
E|-----4--5-----4--2--------------------2------------------------------------|
			         "...you, but now i'm..."
End
e|-------------------4--5------------------------------------------------------|
B|-------------------5--5------------------------------------------------------|
G|--9----------------4--4------------------------------------------------------|
D|--9--4--7--9-----"i'm still dreaming..."-------------------------------------|
A|--7--4--7--9-----------------------------------------------------------------|
E|-----2--5--7-----------------------------------------------------------------|

Tap to rate this tab
# A B C D E F G H I J K L M N O P Q R S T U V W X Y Z