Song name
# A B C D E F G H I J K L M N O P Q R S T U V W X Y Z

Kid Dynamite - Heart A Tact tab

----------------------------------------------------------------------
	           HEART A TACT - Kid Dynamite
----------------------------------------------------------------------

pm - palm mute

Intro/Verse
e|------------------------------------------------------------------|
B|------------------------------------------------------------------|
G|------555-----77-----77---------555----7---7----------------------|
D|-777--555--5--77--5--77----777--555--5-7-5-7----------------------|
A|-777--333--5--55--5--55----777--333--5-5-5-5----------------------|
E|-555-------3------3--------555-------3---3------------------------|

"Won't let the world, weigh me down..."
e|------------------------------------------------------------------|
B|------------------------------------------------------------------|
G|--9----9-----------7----------------------------------------------|
D|--9----9----2---5--7----------------------------------------------|
A|--7----7----2---5--5----------------------------------------------|
E|------------0---3-------------------------------------------------|

Second part of song (don't know what else to call it)

"Just how many are there on my side?"
e|------------------------------------------------------------------|
B|------------------------------------------------------------------|
G|-----------------------7777---------------------------------------|
D|--7777---2222---4444---7777---------------------------------------|
A|--7777---2222---4444---5555---------------------------------------|
E|--5555---0000---2222----------------------------------------------|
    pm...................................................

After that play those notes open. then repeat, then play open for a while. 


Tap to rate this tab
# A B C D E F G H I J K L M N O P Q R S T U V W X Y Z