Song name
# A B C D E F G H I J K L M N O P Q R S T U V W X Y Z

Kid Dynamite - Ph Control tab

-------------------------------------------------------------------------------
                              PH CONTROL - Kid Dynamite
-------------------------------------------------------------------------------



Verse
e|---------------------------------------------------------------------------|
B|---------------------------------------------------------------------------|
G|---------------------------------------------------------------------------|
D|--6--9---------------------------------------------------------------------|
A|--6--9-4 times-------------------------------------------------------------|
E|--4--7---------------------------------------------------------------------|

Chorus
e|---------------------------------------------------------------------------|
B|---------------------------------------------------------------------------|
G|--9-11-----------6---------------------------------------------------------|
D|--9-11--4--6--2--6--6--4--6------------------------------------------------|
A|--7--9--4--6--2--4--6--4--6------------------------------------------------|
E|--------2--4--0-----4--2--4------------------------------------------------|

End
e|---------------------------------------------------------------------------|
B|---------------------------------------------------------------------------|
G|-----4--8------------------------------------------------------------------|
D|--3--4--8------------------------------------------------------------------|
A|--3--2--6------------------------------------------------------------------|
E|--1------------------------------------------------------------------------|

Tap to rate this tab
# A B C D E F G H I J K L M N O P Q R S T U V W X Y Z