Song name
# A B C D E F G H I J K L M N O P Q R S T U V W X Y Z

Kid Dynamite - Rid Of The Losers Bring On The Cruisers tab

 
-------------------------------------------------------------------------------
            RID OF THE LOSERS BRING ON THE CRUISERS - Kid Dynamite
-------------------------------------------------------------------------------


Verse
e|---------------------------------------------------------------------------|
B|---------------------------------------------------------------------------|
G|-----------------9---------------------------------------------------------|
D|--9--4--7--6--7--9---------------------------------------------------------|
A|--9--4--7--6--7--7---------------------------------------------------------|
E|--7--2--5--4--5------------------------------------------------------------|

Chorus Thingy:
e|---------------------------------------------------------------------------|
B|---------------------------------------------------------------------------|
G|--7-----------------------------------------6------------------------------|
D|--7<-Mute-7--------4------------------------6<-Bend Chord------------------|
A|--5-------7<-Mute--4---second time end on --4------------------------------|
E|----------5--------2-------------------------------------------------------|

Change:
e|---------------------------------------------------------------------------|
B|---------------------------------------------------------------------------|
G|--6--7--9------------------------------------------------------------------|
D|--6--7--9--9---------------------------------------------------------------|
A|--4--5--7--9---------------------------------------------------------------|
E|-----------7---------------------------------------------------------------|

End of Change:
e|---------------------------------------------------------------------------|
B|---------------------------------------------------------------------------|
G|-----------------7---------------------------------------------------------|
D|--7--2--5--4--5--7---------------------------------------------------------|
A|--7--2--5--4--5--5---------------------------------------------------------|
E|--5--0--3--2--3------------------------------------------------------------|

End:
e|---------------------------------------------------------------------------|
B|---------------------------------------------------------------------------|
G|-----------9---------------------------------------------------------------|
D|--9--4--7--9---------------------------------------------------------------|
A|--9--4--7--7---------------------------------------------------------------|
E|--7--2--5------------------------------------------------------------------|


 
Tap to rate this tab
# A B C D E F G H I J K L M N O P Q R S T U V W X Y Z