Song name
# A B C D E F G H I J K L M N O P Q R S T U V W X Y Z

Kid Frost - Mexican Border tab

Artist: Kid Frost
song: Mexican border
Album: When Hell a freezes over (1997)
Tabbed by: Rodrigo Antonino Pascual
e-mail: enigma_ch@hotmail.com

The chords are simple as the most rap music: 
5th grade minor and 2nd grade minor. 
In this case on C, so it's Am and Dm.

Los acordes son simples al igual que en la mayoría de música rap: 
el 5to grado menor y el 2do grado menor.  
En este caso armonizada en Do.
Por consiguiente los acordes son La menor y Re menor.




Capo on 1rst fret!


    Am                      Dm
e||--0---0---0---0---0---0---1--------0h1p0---------||
B||---1---1---1---1---1---1--3-------------3~~------||
G|o----2---0---2---2---2---2-2----------------------o|  2x
D|o---------3---2---0---2---0-----------------------o|
A||-0---0-------------------------------------------||
E||-------------------------------------------------||


e||-----------------------------------------------------------||
B||--1-3-3s5--3s1------------1-3-3s5--3s1-1h3-1---------------||
G||---------------0h2---------------------------0h2-----------||  Gtr I
D||-----------------------------------------------------------||
A||-----------------------------------------------------------||
                                                               |
e||---------------------------------------------------8p75p0--||
B||-----------------------------------------------------------||
G||-----------------------------------------------------------|| Grt II
D||-----------------------------------------------------------||
A||-----------------------------------------------------------||
E||-----------------------------------------------------------||

   Gtr I
e||---------------------------------------------------------------------||
B||--1-3-3s5--3s1------------------1-3-3s5--3s1-1h3-1-------------------||
G||---------------0h2---------------------------------0h2---------------||  
D||---------------------------------------------------------------------||
A||---------------------------------------------------------------------||
E||---------------------------------------------------------------------||
                                                                         |
   Gtr II                                                                |
e||---------------------8p75p0------------------------------------------||
B||---------------------------------------5p3h5--------------5h6p5p3-5--||
G||---------------------------------------------------------------------||
D||---------------------------------------------------------------------||
A||---------------------------------------------------------------------||
E||---------------------------------------------------------------------||



¡NO OLVIDES EL CAPO EN EL PRIMER TRASTE!
Tap to rate this tab
# A B C D E F G H I J K L M N O P Q R S T U V W X Y Z