Song name
# A B C D E F G H I J K L M N O P Q R S T U V W X Y Z

Kid Harpoon - Red Is The Colour tab

Kid Harpoon- Red Is the Colour

GO TO www.kidharpoon.com

Tabbed By James Jefferys

this is an amazing song... by an amazing Medway artist.
I'll do my best to do it justice.

capo on the 9th.  tabbing is relative to capo position.

---------------------------------------------------

INTRODUCTION

e------0-0-0-0-0-0-0-0------0-0-0-0-0-0-0-0--|
B--//3-3-3-3-3-3-3-3-0-3\\0-0-0-0-0-0-0-0-0--|
G------0-0-0-0-0-0-0-0------4-4-4-4-4-4-4-4--|   X 2
D------0-0-0-0-0-0-0-0------0-0-0-0-0-0-0-0--|
A--------------------------------------------|
E--------------------------------------------|

(towards the end of the second time
of playing this part, the strumming becomes
a lot more violent)

VERSE  (listen to song for strumming pattern)
(I've double timed the gaps to make it more
understandable)
---------------------------------------------------

     Em     Esus4      Em    C         Em7    C
e----------------------------0--0-0-0--0-0-0--0-|
B----0--00---0-0-----0--0----1--1-1-1-h3-3-3----|p1
G----0--00---2-2b(3)-2--0----0--0-0-0--0-0-0--0-|
D----2--22---2-2b(3)-2--2----2--2-2-2--2-2-2--2-|
A----2--22---2-2b(3)-2--2----3--3-3-3--3-3-3--3-|
E----0--00---0-0-----0--0----0--0-0-0--0-0-0--0-|

This is the riff to all the verses.  You'll
take a while to get the timing right from
this convoluted (but correct) tab.
----------------------------------------------------

"I look to the king... I throw him an outline" bit-
(strum this violently)

  Em7
e--0///0-0-0-0-0-------------------------------------|
B--3///5-5-5-5-5-------------------------------------|
G--0///0-0-0-0-0-------------------------------------|  ("I don't know what gold is...!")
D--2///4-4-4-4-4-------------------------------------|
A--3///5-5-5-5-5-------------------------------------|
E--0///0-0-0-0-0-------------------------------------|  >>>  Go into VERSE
-----------------------------------------------------|

Same for all so far... just diffeent lyrics.

play INTRO again... theeeen- (play delightfully...)

e---3---3-2-0-0---------0--0-0-0-----------|
B---0---0-0-0-1-quickly-3--3-1-0-----------|
G-------------5-trap----0--0-0-4-----  X 2-|
D---------------all------------------------|
A---------------strings-----------0h2------|
E---------------------------------0--------|


SOLO

e--7-7-7-7-5-3-5-5-5-5-3-2-3-3-3-3-2-0--0-------0-0--0-------0-|
G--0-0-0-0-0-0-0-0-0-0-0-0-0-0-0-0-0-0--0h1h2h3-1-0--0h1h2h3-1-|
B---------------------------------------0-------0-0--0-------0-|
D--------------------------------------------------------------|
A--------------------------------------------------------------|
E--------------------------------------------------------------|

Go back into the VERSE


end on Em

hope it all works out for you.

james
x


any queries or anything like that, go go go to
www.myspace.com/jamesfj
Tap to rate this tab
# A B C D E F G H I J K L M N O P Q R S T U V W X Y Z