Song name
# A B C D E F G H I J K L M N O P Q R S T U V W X Y Z

Kid Kopphausen - Wenn Ich Dich Gefunden Hab tab

-------------------------------------------------------------------------------
                WENN ICH DICH GEFUNDEN HAB - KID KOPPHAUSEN
-------------------------------------------------------------------------------
Tabbed by: famousframes
E-mail: hello [at] famousframes.de

Tuning: Standard, Capo 2nd fret


Intro & Verse:

e|--0--0--0--0-----------|
B|--1--1--1--0-----------|
G|--0--0--2--0-----------|
D|--2--0--2--0-----------|
A|--3--2--0--2-----0--2--|
E|-----------3--3--------|


Pre-chorus:

e|--1--0--|
B|--1--3--|
G|--2--0--|
D|--3--0--|
A|--3--2--|
E|--1--3--|


Chorus:

e|--0--0--0--3--|:(3x)
B|--1--1--1--0--|
G|--0--0--2--0--|
D|--2--0--2--0--|
A|--3--2--0--2--|
E|-----------3--|

e|--1--0--|
B|--1--3--|
G|--2--0--|
D|--3--0--|
A|--3--2--|
E|--1--3--|


Bridge:

e|--1--0--0--0-----1--|
B|--1--3--0--1--1--1--|
G|--2--0--1--2--0--2--|
D|--3--0--2--2--0--3--|
A|--3--2--2--0--2--3--|
E|--1--3--0--------1--|
Tap to rate this tab
# A B C D E F G H I J K L M N O P Q R S T U V W X Y Z