Song name
# A B C D E F G H I J K L M N O P Q R S T U V W X Y Z

Kid Rock - Prodigal Son tab

Ok ppl its me blah blah blah bubba_blink@hotmail.com 
this song is the same thing over and over except the brigde.

e]-------------------------------------------||
B]--2-2---------------3-3--2-----------------||
G]--2-2---------------2-2--2-----------------||
D]--2-2-------5-5-----0-0--2-----------------||
A]--0-0-------5-5----------0---0-3p0---0-3-0~||
E]---------0--3-3--------------------3-------||
P.M.      
e]-------------------------------------------||
B]--2-2---------------3-3--2-----------------||
G]--2-2---------------2-2--2-----------------||
D]--2-2-------5-5-----0-0--2-----------------||
A]--0-0-------5-5----------0---0-3p0---0-3-0~||
E]---------0--3-3--------------------3-------||
P.M.       .  

 And that is it.
Tap to rate this tab
# A B C D E F G H I J K L M N O P Q R S T U V W X Y Z