Song name
# A B C D E F G H I J K L M N O P Q R S T U V W X Y Z

Kid Rock - Low Life tab

#----------------------------------PLEASE NOTE---------------------------------#
#This file is the author's own work and represents their interpretation of the #
#song. You may only use this file for private study, scholarship, or research. #
#------------------------------------------------------------------------------##


Gtr I (E A D G B E) - 'Untitled'

INTRO
 4/4
  Gtr I
    E   E   E   E   E   E   E E  E E E  E E E E  E  E E E
|------------------------------------------------------------|
|-\10--10--10--10--10--10--\8-8--8-8-8-----------------------|
|-\11--11--11--11--11--11--\9-9--9-7-7-----------2-----------|
|---------------------------------------0-0h3h4-----4p3-3----|
|------------------------------------------------------------|
|------------------------------------------------------------|


                                  VERSE  |--Repeat 6 times--|
    

|-------------------------------|-----------------2-x-2-x-2----|
|-\10--10--10--10--10--10--\8-8-|-8-8-8-----------3-x-3-x-3----|
|-\11--11--11--11--11--11--\9-9-|-9-7-7-----------2-x-2-x-2----|
|-------------------------------|--------0-0h3h4---------------|
|-------------------------------|------------------------------|
|-------------------------------|------------------------------|

Bridge
  E E E E  E E E E   E E E E  E E E E  E E E E  E E E E  E
|------------------|------------------------------------------|
|------------------|------------------------------------------|
|-5-5-7-5--5-5-7-5-|-5-5-7-5--5-5-7-5--7-7-9-7--7-7-9-7--7----|
|-5-5-7-5--5-5-7-5-|-5-5-7-5--5-5-7-5--7-7-9-7--7-7-9-7--7----|
|-3-3-3-3--3-3-3-3-|-3-3-3-3--3-3-3-3--5-5-5-5--5-5-5-5--5----|
|------------------|------------------------------------------|

I know this is not a 100 percent complete tab, but it is good enough
to get you on track to learning it, listen to the song to get the timing.
I will a more complete tab with the solo when i get time!
Tap to rate this tab
 
# A B C D E F G H I J K L M N O P Q R S T U V W X Y Z