Song name
# A B C D E F G H I J K L M N O P Q R S T U V W X Y Z

Kid Rock - Bawitaba tab

Bawitaba By Kid ROCK:
Tuning: Standard

e--------------------|
b--------------------|
g--------------------|    the intro is just an E chord you just let it ring
d-2------------------|   and its real easy just listen to the song and youll
a-2------------------|   get it
e-0------------------|


e---------------------------------|
b---------------------------------|
d---------------------------------|
d-2-2-2---2-2-2---2-2-2-----------|
a-2-2-2-5-2-2-2-5-2-2-2-5---------|
e-0-0-0-3-0-0-0-3-0-0-0-3---------|


e----------------------------------------------|
b----------------------------------------------|
g----------------------------------------------|
d----------------------2-----------------------|
a-3-3--3-3---3-3--3-3--2-----------------------|
e-1-1--1-1---1-1--1-1--0-----------------------|     I dont know any solo realy im
                                              just a rythm guy

e-----------------------------------|
b-----------------------------------|                this is palm muted
g-----------------------------------|
d-2-2-2-2-2-2----2-2-2-2-2----------|
a-2-2-2-2-2-2----2-2-2-2-2----------|
e-0-0-0-0-0-0-3^-0-0-0-0-0----------|    thats all of it i know so far but listen to
the song and youll get it its easy
Tap to rate this tab
# A B C D E F G H I J K L M N O P Q R S T U V W X Y Z