Song name
# A B C D E F G H I J K L M N O P Q R S T U V W X Y Z

Kid Rock - Tim Roque tab

Help us improve GuitareTab! Take a short survey!
Intro/Verses riff:   w/clean tone
e----------------------------------------------------------------------------------------
b-----------------------0----------------0---0---------------7-5-------------------------
g----12----14-12------9-----10-9-------4---4---4---------5-------5-----------------------
d----------------0---10----------10----5---------5-----7---7-------7---------------------
a-14----14---------0-10---10--------10-5-----------5-0-----------------------------------
e-0-------------------0----------------0-------------------------------------------------

Chorus riff:   w/dist.
e----------------------------------------------------------------------------------------
b----------------------------------------------------------------------------------------
g----------------------------------------------------------------------------------------
d----------------5-5-5-0-0-12-12\--------------------------------------------------------
a-14-14-14\5-5-5-5-5-5-0-0-12-12\--------------------------------------------------------
e-12-12-12\3-3-3-------------------------------------------------------------------------

Bridge riff (lead part only):   w/dist.
e------------------------]--0-----0------------------------------------------------------
b-12-9/12-12\9-9-7/9-9\7-]----5-----5-0--------------------------------------------------
g-X--X----X----X-X---X---]------7-------4------------------------------------------------
d-10-7/10-10\7-7-5/7-7\5-]-0-------------------------------------------------------------
a------------------------]-0-------------------------------------------------------------
e------------------------](5)------------------------------------------------------------

replace 2nd measure with this 4th time
e----------------
b----------------
Related for Tim Roque tab