Song name
# A B C D E F G H I J K L M N O P Q R S T U V W X Y Z

Kid Rock - I Am The Bullgod tab

-------------------------------------------------------------------------------
			     I am the Bullgod - Kid Rock
-------------------------------------------------------------------------------
Tabbed by: dustyattic

Here's what you have been looking for. If you like it, please vote accordingly.

Tuning: Drop D

e|-VERSE-----------------------:---------------------------------------------|
B|-----------------------------:-----15-15-15-----------15----15----13----13-|
G|-----------------------------:---17/--------*ETC*--17----17----15----15----|
D|-----------------------------:---------------------------------------------|
A|-0--5H6-0-0---3H5-0---3H5-0--:---------------------------------------------|
D|-0--5H6-0-0---3H5-0---3H5-0--:-SOLO----------------------------------------|

e|-----------------------:-CHORUS--------------------------------:-----------|
B|-----------12/---------:---------------------------------------:-----------|
G|-12--------12/(SLIDE)--:---------------------------------------:-----------|
D|----12-----------------:-------------5-------------------------:-----------|
A|-----------------------:-0-----0-----3-----5----0-5-3---0-5H6--:--SEE------|
D|-----------------------:-0-----0-----------5----0-5-3---0-5H6--:--NOTES----|

e|-W-WAH EFFECT------------:-------------------------------------------------|
B|-------------------------:-------------------------------------------------|
G|-------------------------:-------------------------------------------------|
D|-7-7----7----7--7----5-7-:-------------------------------------------------|
A|-5-5----5----5--5----3-5-:----3-5-0------------5---------------------------|
D|-0-0----0----0--0--------:----------5-3--3-5P0-----------------------------|

e|PFF-THAT AINT NOTHIN-------------------------------------------------------|
B|---------------------------------------------------------------------------|
G|---------------------------------------------------------------------------|
D|---------------------------------------------------------------------------|
A|-10H12-12--10H12-12--10H12-12--10H12-12--10H12-10----10H12-12--10H12-12----|
D|-10H12-12--10H12-12--10H12-12--10H12-12--10H12-10----10H12-12--10H12-12----|

e|---------------------------------------------------------------------------|
B|---------------------------------------------------------------------------|
G|---------------------------------------------------------------------------|
D|---------------------------------------------------------------------------|
A|-10-12\---3--3-3H5-5-------------------------------------------------------|
D|-10-12\---3--3-3H5-5-------------------------------------------------------|

e|---------------------------------------------------------------------------|
B|---------------------------------------------------------------------------|
G|---------------------------------------------------------------------------|
D|-------------------------------------------------------------------------7-|
A|-10H12-12--10H12-12--10H12-12--10H12-12--10H12-10----10H12--5--3-3-3-5H3-5-|
D|-10H12-12--10H12-12--10H12-12--10H12-12--10H12-10----10H12--5--3-3-3-5H3---|

NOTES:
I didnt try to tab the parts of the song where it's basically some chord with
wah. You can find what works easy enough. The solo is probably good enough to
fool someone who doesn't know better, but it obviously could use improvement. 
It gets you in the general area though. 
Tap to rate this tab
# A B C D E F G H I J K L M N O P Q R S T U V W X Y Z