Kid Rock - Only God Knows Why tab

----------------------------
Artist:   Kid Rock
Song:     Only God Knows Why
Type:     Lead Guitar Solo
----------------------------



E|-------------12-------------------------------------|
B|-7/9------------12----------------------------------|
G|-------------------13\11---9----9h11-11-11p9-11-----|
D|-----------------------------11---------------------|
A|----------------------------------------------------|
E|----------------------------------------------------|

   
  Bridge Index finger through 9th fret in this section
E|----------------------------------------------------|
B|-12---9---10---9------------------------------------|
G|-----------------9h11-11p9--------------------------|
D|---------------------------9h11-11-11-9-------------|
A|----------------------------------------9h11-9-9----|
E|-------------------------------------------------0--|


E|---------------------------------------|
B|---------------------------------------|
G|---------------------------------------|
D|---------------------------------------|
A|-9-9/11-11-11/12-12\11-11\9-9/11---11--|
E|---------------------------------------|


E|----------------------------------------------------|
B|--------------------------------------------------5-|
G|--------------------------------------4---4h6p4-4-4-|
D|-9h11-----------------------------------------------|
A|--------9\7---7-9-9---7\4-4---4p2-4/7---------------|
E|------------9---------------------------------------|


E|-------------12----------------|
B|-5/7---7b9------12-------------|
G|-------------------13\11---9---|
D|-------------------------------|
A|-------------------------------|
E|-------------------------------|
Tap to rate this tab
 
# A B C D E F G H I J K L M N O P Q R S T U V W X Y Z