Song name
# A B C D E F G H I J K L M N O P Q R S T U V W X Y Z

Kid Rock - Blue Jeans And A Rosary tab

E-----------------6------------------------------------------------------|
B-6-4-6-6-4-6-6-4---7---------------------18-18-18-18-16-18--------------|
G---------------------5-7-5-5-------------------------------17-19-17-19--|
D-----------------------------1-1-3-1------------------------------------|
A-------------------------------------3-3--------------------------------|
E------------------------------------------------------------------------|

E16-15-----------------------------------------------------------------------|
B-----18-16-15---------------------------------------------------------------|
G--------------17-----------17-15-14-17-15-14-17-15-14-17--------------------|
D-----------------15-13-15-17-----------------------------15-15-15-17-15-----|
A-----------------------------------------------------------------------17---|
E----------------------------------------------------------------------------|
Tap to rate this tab
# A B C D E F G H I J K L M N O P Q R S T U V W X Y Z