Song name
# A B C D E F G H I J K L M N O P Q R S T U V W X Y Z

Kid Rock - Where U At Rock tab

Kid Rock
Where U at Rock?
"Devil Without a Cause"


This has to be the easiest song on the
entire "Devil Wothout a Cause" CD...

Enjoy!

This is pretty much the song right here:
Verse:
------------------------------
------------------------------
------------------------------
--5---6-5----5-----xx-x-6-5---
--5---6-5----5-----xx-x-6-5---
--3---4-3----3-----xx-x-4-3---

Chorus
------------------------------
------------------------------
------------------------------
--5---6-5----5-----xx-x-6-5---
--5---6-5----5-----xx-x-6-5---
--3---4-3----3-----xx-x-4-3---

The whole freakin song:
------------------------------
------------------------------
------------------------------
--5---6-5----5-----xx-x-6-5---
--5---6-5----5-----xx-x-6-5---
--3---4-3----3-----xx-x-4-3---

Add more dead strokes if you see fit,
though i think its right.
Tap to rate this tab
# A B C D E F G H I J K L M N O P Q R S T U V W X Y Z