Song name
# A B C D E F G H I J K L M N O P Q R S T U V W X Y Z

Kid Rock - Black Bob tab

e|--------------------------------------------------------------------------|
B|-----------8b8b---9-------------------------9-------11-11b--9b------------|
G|-----------9b9b-7----7b-------7b-----9b9b-7--7b-----11-11b--9b------------|
D|---------------------------------9----------------------------------------|
A|------------------------789---------------------789-----------------------|
E|--------------------------------------------------------------------------|

e|--------------------------------------------------------------------------|
B|------------------9-------------------------9-------11b-11b-9b------------|
G|-----------9b9b-7----7b-------7b-----9b9b-7---7b--------------------------|
D|---------------------------------9----------------------------------------|
A|-------------------------789----------------------------------------------|
E|--------------------------------------------------------------------------|
ok that's all I got so far.I've been looking for this everywhere and I couldn't
find it.so I tryed tabing it myself.I think it's pretty good.Let me know if you
like it. fishslap@hotmail.com
Tap to rate this tab
 
# A B C D E F G H I J K L M N O P Q R S T U V W X Y Z