Song name
# A B C D E F G H I J K L M N O P Q R S T U V W X Y Z

Kid Rock - Somebodys Gotta Feel This tab

Drop D tuning
I know the timing isn't right, but it's easy to pick up.

Verses
E---------------------------------------------|
B---------------------------------------------|
G---------------------------------------------|
D-5-8-10---5-8-5------------------------------|
A-5-8-10---5-8-5------------------------------|
D-5-8-10---5-8-5------------------------------|

Chorus
E---------------------------------------------|
B---------------------------------------------|
G---------------------------------------------|
D-55-8-5-10--55-88-5--------------------------|
A-55-8-5-10--55-88-5--------------------------|
D-55-8-5-10--55-88-5--------------------------|

Little Solo Part, Play twice, I think
E---------------------------------------------|
B---------------------------------------------|
G----------------7--------9-7-----------------|
D-7-77------7-8-9------------9-8-7------------|
A-7-77--7-10--------7-77----------10----------|
D-7-77--------------7-77----------------------|
Tap to rate this tab
 
# A B C D E F G H I J K L M N O P Q R S T U V W X Y Z