Guitaretab - guitar tabs
Song name
# A B C D E F G H I J K L M N O P Q R S T U V W X Y Z

Kidneythieves - Before Im Dead tab

http://www.kidneythieves.com/

For some reason there are no kidneythieves tabs on here...  This is one of my favourite 
tracks - before i'm dead - and is found on the album zerospace, and on the queen of the 
soundtrack.  It also has the bonus of being quite easy to play: listen to the song for timings.

intro
(guitar comes in at 0:17 after heavy distortion)

e|-----------------------------------------------------|
B|-----------------------------------------------------|
G|-----------------------------------------------------|
D|-----------------------------------------------------|
A|6p55h6p55h6--6p55h6p55h6--7p55h6p55h6--10p55h6p55h6--|
D|6p55h6p55h6--6p55h6p55h6--7p55h6p55h6--10p55h6p55h6--|

e|------------------------------------------------------|
B|------------------------------------------------------|
G|------------------------------------------------------|
D|------------------------------------------------------|
A|6p55h6p55h6--7p55h6p55h6--10p55h6p55h7--10p55h6p55h7--|
D|6p55h6p55h6--7p55h6p55h6--10p55h6p55h7--10p55h6p55h7--|


verse (0:51)

e|------------------------------------------------------|
B|------------------------------------------------------|
G|------------------------------------------------------|
D|------------------------------------------------------|
A|6p55h6p55h6xxxx6p55h6p55h6--6p55h6p55h6--6p55h6p55h6--|
D|6p55h6p55h6xxxx6p55h6p55h6--6p55h6p55h6--6p55h6p55h6--|

e|-----------------------------------------------------|
B|-----------------------------------------------------|
G|-----------------------------------------------------|
D|-----------------------------------------------------|
A|6p55h6p55h6---------------7p55h6p55h6----------------|
D|6p55h6p55h6---------------7p55h6p55h6----------------|

e|--------------------------------------------------------|
B|--------------------------------------------------------|
G|--------------------------------------------------------|
D|--------------------------------------------------------|
A|6p55h6p55h6--7p55h6p55h6-10p55h6p55h6--10p55h6p55h6-6666|
D|6p55h6p55h6--7p55h6p55h6-10p55h6p55h6--10p55h6p55h6-6666|

chorus

e|-------------------------------------------------|
B|-------------------------------------------------|
G|-------------------------------------------------|
D|-------------------------------------------------|
A|0-00000-00004-44444-44440-00000-00004-44444-44440|
D|0-00000-00004-44444-44440-00000-00004-44444-44440|

e|--------------------------------------------------|
B|--------------------------------------------------|
G|--------------------------------------------------|
D|--------------------------------------------------|
A|0-00000-00004-44444-44440-00000-00004-44444-4444/8|
D|0-00000-00004-44444-44440-00000-00004-44444-4444/8|

(palm muted)

e|----------------------------------------------------|
B|----------------------------------------------------|
G|----------------------------------------------------|
D|----------------------------------------------------|
A|6p55h6p55h6--6p55h6p55h6--6p55h6p55h6--6p55h6p55h6--|
D|6p55h6p55h6--6p55h6p55h6--6p55h6p55h6--6p55h6p55h6--|


pre-chorus (1:51)
[ Tab from: http://www.guitaretab.com/k/kidneythieves/90557.html ]
e|-----------------------------------------------------|
B|-----------------------------------------------------|
G|-----------------------------------------------------|
D|-----------------------------------------------------|
A|6p55h6p55h6---------------7p55h6p55h6------------6666|
D|6p55h6p55h6---------------7p55h6p55h6------------6666|

e|--------------------------------------------------------|
B|--------------------------------------------------------|
G|--------------------------------------------------------|
D|--------------------------------------------------------|
A|6p55h6p55h6--7p55h6p55h6--7p55h6p55h6--10p55h6p55h6-6666|
D|6p55h6p55h6--7p55h6p55h6--7p55h6p55h6--10p55h6p55h6-6666|

chorus

e|-------------------------------------------------|
B|-------------------------------------------------|
G|-------------------------------------------------|
D|-------------------------------------------------|
A|0-00000-00004-44444-44440-00000-00004-44444-44440|
D|0-00000-00004-44444-44440-00000-00004-44444-44440|

e|-------------------------------------------------|
B|-------------------------------------------------|
G|-------------------------------------------------|
D|-------------------------------------------------|
A|0-00000-00004-44444-44440-00000-00004-44444-44444|
D|0-00000-00004-44444-44440-00000-00004-44444-44444|

e|-----------------------------------------------|
B|-----------------------------------------------|
G|-----------------------------------------------|
D|-----------------------------------------------|
A|5-55-03-33-01-111-1-111/5-55-03-33-01-111-1-111|
D|5-55-03-33-01-111-1-111/5-55-03-33-01-111-1-111|

(second guitar comes in)

Guitar one

e|-----------------------------------------------|
B|-----------------------------------------------|
G|-----------------------------------------------|
D|-----------------------------------------------|
A|5-55-03-33-01-111-1-111/5-55-03-33-01-111-1-111|
D|5-55-03-33-01-111-1-111/5-55-03-33-01-111-1-111|


Guitar two (let each note ring out clearly)

e|-----------------------------------------------|
B|-----------------------------------------------|
G|-----------------------------------------------|
D|12--------13-----------14----------10----------|
A|-----------------------------------------------|
D|-----------------------------------------------|

Guitar one

e|-----------------------------------------------|
B|-----------------------------------------------|
G|-----------------------------------------------|
D|-----------------------------------------------|
A|5-55-03-33-01-111-1-111/5-55-03-33-01-111-1-111|
D|5-55-03-33-01-111-1-111/5-55-03-33-01-111-1-111|


Guitar two

e|-----------------------------------------------|
B|-----------------------------------------------|
G|14---------15----------17----------19----------|
D|-----------------------------------------------|
A|-----------------------------------------------|
D|-----------------------------------------------|


Guitar one

e|-----------------|
B|-----------------|
G|-----------------|
D|-----------------|
A|01-111-1-111/8---|
D|01-111-1-111/8---|

Guitar two

e|-----------------|
B|-----------------|
G|19---------------|
D|-----------------|
A|-----------------|
D|-----------------|


(Guitar one only)

(palm muted with heavy distortion  continue until end)

e|----------------------------------------------------|
B|----------------------------------------------------|
G|----------------------------------------------------|
D|----------------------------------------------------|
A|6p55h6p55h6--6p55h6p55h6--6p55h6p55h6--6p55h6p55h6--|
D|6p55h6p55h6--6p55h6p55h6--6p55h6p55h6--6p55h6p55h6--|
Related for Before Im Dead tab