Song name
# A B C D E F G H I J K L M N O P Q R S T U V W X Y Z

Kids In Glass Houses - Good Boys Gone Rad tab

Help us improve GuitareTab! Take a short survey!
Kids In Glass Houses - Good Boys gone Rad

Album:Smart Casual
Instrument: Guitar
Tuning: eBGDAE

Tabbed By: JJ

joshuaarmstrong@hotmail.co.uk

Intro

e||-------------------------|
B||-------------------------|
G||-------------------------|
D||------7------------------|  X2
A||--9---5---5----9--7--5---|
E||--7-------3----7--5--3---|


Verse

e||-----------------|
B||-----------------|
G||-----------------|
D||-----------------|
A||-----------------|
E||--7h10---5p3-0---|  X8


Chorus

e||-------------------------------------|
B||-------------------------------------|
G||-------------------------------------|
D||-----------------------------7-------|
A||--9------7------5------7-----5-X8----|   (not sure about ending but sounds alright)
E||--7-X16--5-X16--3-X16--5-X8----------|


Chorus Ending
G||------9-9--|
D||------9-9--|
A||--7-7------|
E||--7-7------| X4


2ND VERSE
e||-----------------|
B||-----------------|
G||-----------------|
D||-----------------|
A||-----------------|
E||--7h10---5p3-0---|  X8


Chorus

e||-------------------------------------|
B||-------------------------------------|
G||-------------------------------------|
D||-----------------------------7-------|
A||--9------7------5------7-----5-X8----|
E||--7-X16--5-X16--3-X16--5-X8----------|


Intro
e||-------------------------|
B||-------------------------|
G||-------------------------|
D||------7------------------|  X2
A||--9---5---5----9--7--5---|
E||--7-------3----7--5--3---|

Outro

e||-------------------------|
B||-------------------------|
G||-------------------------|
D||-------------------------|
A||-----------5-------------|
E||--5--7--5-----7--5--3--0-| X 10

Chorus

e||-------------------------------------|
B||-------------------------------------|
G||-------------------------------------|
D||-----------------------------7-------|
A||--9------7------5------7-----5-X8----|
E||--7-X16--5-X16--3-X16--5-X8----------|




_____________________
Related for Good Boys Gone Rad tab