Song name
# A B C D E F G H I J K L M N O P Q R S T U V W X Y Z

Kids In Glass Houses - Church Tongue tab

Artist: Kids In Glass Houses
Rhythm Guitarist: Joel Fisher
Song: Church Tongue
Album: Smart Casual
Tabbed By: Ben [http://www.myspace.com/ben_smith1991]

Key:
~: Let Note Ring
/: Slide Up
\: Slide Down

[Tuning: Standard - E,A,D,G,B,e]

Intro:
("Nah, nah nah nah"...)

Guitar 1:
e|--------------------------------------------------------------------------------------------|
B|------------10-10-------10-10-----------------------------10-10-------10-10-----------------|
G|-------9-11-------11-11-------11-11-9-9--------------9-11-------11-11-------11-11-9-9-11-11-|
D|-11-12----------------------------------12-12--11-12----------------------------------------|
A|--------------------------------------------------------------------------------------------|
E|--------------------------------------------------------------------------------------------| [x2]

Guitar 2 (probably bass):
e|-------------------------------------------------------------------|
B|-------------------------------------------------------------------|
G|-------------------------------------------------------------------|
D|-5-5-5-5-5-5-5-5--9-9-9-9-9-9-9-9--7-7-7-7-7-7-7-7--7-7-7-7-7-9-9\-|
A|-5-5-5-5-5-5-5-5--9-9-9-9-9-9-9-9--7-7-7-7-7-7-7-7--7-7-7-7-7-9-9\-|
E|-3-3-3-3-3-3-3-3--7-7-7-7-7-7-7-7--5-5-5-5-5-5-5-5--5-5-5-5-5-7-7\-| [x2]


Verse 1:
("Every day I wake up"...)

e|------------------------------------------------------| 
B|------------7-5---------5-7---------5-7-----------5-7-| 
G|------------6-7---------6-7---------6-7-----------6-7-|    Play bracketed notes
D|-(7)-4/5-5-------5/7-7-------7/9-9---------7/9-9------|   at start of 2nd time.
A|-(5)-4/5-5-------5/7-7-------7/9-9---------7/9-9------|
E|-(5)-2/3-3-------3/5-5-------5/7-7---------5/7-7------| [x2]

Prechorus:
("Will you remember me at all?")

Guitar 1:
e|--------------------------------------------------------------------------------------------|
B|------------10-10-------10-10-----------------------------10-10-------10-10-----------------|
G|-------9-11-------11-11-------11-11-9-9--------------9-11-------11-11-------11-11-9-9-11-11-|
D|-11-12----------------------------------12-12--11-12----------------------------------------|
A|--------------------------------------------------------------------------------------------|
E|--------------------------------------------------------------------------------------------| [x2]

Guitar 2:
e|--------------------------------------------------------------------|
B|--------------------------------------------------------------------|
G|--------------------------------------------------------------------|     Ease off palm muting
D|-5-5-5-5-5-5-5-5--7-7-7-7-7-7-7-7--9-9-9-9-9-9-9-9--9-9-9-9-9-9-9-9-|     at ! 2nd time.
A|-5-5-5-5-5-5-5-5--7-7-7-7-7-7-7-7--9-9-9-9-9-9-9-9--9-9-9-9-9-9-9-9-|     Listen to understand.
E|-3-3-3-3-3-3-3-3--5-5-5-5-5-5-5-5--7-7-7-7-7-7-7-7--7-7-7-7-7-7-7-7-| [x2]
   . . . . . . . .  . . . . . . . .  . . . . . . . .  ! ! ! ! . . . .

Chorus:
("And we don't see eye to eye anymore")

First time:
Guitar 1:
e|-------------------------------------------------------------------------------------------------|
B|-------------------------------------------------------------------------------------------------|
G|-7-7-7-7--9-9-9-9--14-14-14-14-14-14-14-14--14--12-12--11-11-11-11-11--12-12-12--11-11--12-12-12-|
D|-x-x-x-x--x-x-x-x--x--x--x--x--x--x--x--x---x---x--x---x--x--x--x--x---x--x--x---x--x---x--x--x--|
A|-5-5-5-5--7-7-7-7--12-12-12-12-12-12-12-12--12--10-10--9--9--9--9--9---10-10-10--9--9---10-10-10-|
E|-------------------------------------------------------------------------------------------------|

Guitar 2:
e|--------------------------------------------------------------------|
B|--------------------------------------------------------------------|
G|-7-7-7-7-7-7-7-7----------------------------------------------------|
D|-7-7-7-7-7-7-7-7--7-7-7-7-7-7-7-7--9-9-9-9-9-9-9-9--5-5-5-5-5-5-5-5-|
A|-5-5-5-5-5-5-5-5--7-7-7-7-7-7-7-7--7-7-7-7-7-7-7-7--5-5-5-5-5-5-5-5-|
E|------------------5-5-5-5-5-5-5-5--7-7-7-7-7-7-7-7--3-3-3-3-3-3-3-3-|

That's most of it, the rest of the song is just parts of that.
Tap to rate this tab
# A B C D E F G H I J K L M N O P Q R S T U V W X Y Z