Song name
# A B C D E F G H I J K L M N O P Q R S T U V W X Y Z

Kids In Glass Houses - Fisticuffs tab

-------------------------------------------------------------------------------
			     Fisticuffs - Kids In Glass Houses
-------------------------------------------------------------------------------
Tabbed by:brokenunder
Email:tears--dont--fall@hotmail.co.uk

Tuning:DADGBe

My fav song off the album i think (:
took me a while to tab. hoepfully its right. the solo's so quiet its really hard to hear.

Intro

e|---------------------------------------------------------------------------|
B|---------------------------------------------------------------------------|
G|---------------------------------------------------------------------------|
D|------------------------------------4-----------------4--------------------|
A|---2---------------2------------222-2---5-7777-5--222-2---5-7777-5---------|
D|222-2-5-7777-5--222-2-5-7777-5--222---2-5-7777-5--222---2-5-7777-5---------|

e|---------------------------------------------------------------------------|
B|---------------------------------------------------------------------------|
G|---------------------------------------------------------------------------|
D|-----4-----------------4-----9979------------------------------------------|
A|-222-2---5-7777-5--222-2---5-7757------------------------------------------|
D|-2222--2-5-7777-5--222---2-5-----------------------------------------------|

Verse

Guitar 1
e|---------------------------------------------------------------------------|
B|---------------------------------------------------------------------------|
G|---------------------------------------------------------------------------|
D|-44------77-------9979---------X4------------------------------------------|
A|-22--55--55--77---7757-----------------------------------------------------|
D|-----55------77------------------------------------------------------------|

Guitar 2
e|---------------------------------------------------------------------------|
B|---------------------------------------------------------------------------|
G|--99999999999999-----------------------------------------------------------|
D|-------------------------------X2------------------------------------------|
A|--77777777777777-----------------------------------------------------------|
D|---------------------------------------------------------------------------|
comes in after guitar 1 plays the verse twice. only played at the start of each
verse

Pre-chorus

e|---------------------------------------------------------------------------|
B|--3--------------------3---3333333-----------------------------------------|
G|-4-4------------------2-2--------------------------------------------------|
D|2---2-454545454540---0---0-------------------------------------------------|
A|---------------------------------------------------------------------------|
D|---------------------------------------------------------------------------|
                       ^at the end of this you can mute the strings with your hand and 
if you want

Chorus

Guitar 1
e|---------------------------------------------------------------------------|
B|---------------------------------------------------------------------------|
G|-----------------222222--555555--------------------------------------------|
D|-222222--555555--222222--555555---9979-------------------------------------|
A|-222222--555555--000000--333333---7757-------------------------------------|
D|-222222--555555------------------------------------------------------------|

Guitar 2
e|---------------------------------------------------------------------------|
B|---------------------------------------------------------------------------|
G|77777/9--77777/9--77777/9--77777/9-----------------------------------------|
D|---------------------------------------------------------------------------|
A|55555/7--55555/7--55555/7--55555/7-----------------------------------------|
D|---------------------------------------------------------------------------|

Verse

Pre-chorus

Chorus

Bridge

Guitar 1
e|---------------------------------------------------------------------------|
B|---------------------------------------------------------------------------|
G|---------------------------------------------------------------------------|
D|---------------------------------------------------------------------------|
A|---------------------------------------------------------------------------|
D|Natural harmonics-112233445544332211---------------------------------------|
  Basically guitar 1 trem picks up and down from the 1st fret to the 5th

Guitar 2
e|---------------------------------------------------------------------------|
B|---------------------------------------------------------------------------|
G|---------------------------------------------------------------------------|
D|7~------5--7~--------------------------------------------------------------|
A|7~------5--7~--------------------------------------------------------------|
D|7~------5--7~--------------------------------------------------------------|

Guitar 1
e|---------------------------------------------------------10--10/12---------|
B|88xx88xx88-----------------------------------10--10121012--12--------------|
G|99xx99xx99--repeat that alot---97911911121112--12--------------------------|
D|---------------------------------------------------------------------------|
A|77xx77xx77-----------------------------------------------------------------|
D|---------------------------------------------------------------------------|

Guitar 2
e|---------------------------------------------------------------------------|
B|---------------------------------------------------------------------------|
G|------------------------------------------77-9-----------------------------|
D|77-77-77-77-77-77-77-77-77-77-77-77-77-77-77-9-----------------------------|
A|77-77-77-77-77-77-77-77-77-77-77-77-77-77-55-7-----------------------------|
D|77-77-77-77-77-77-77-77-77-77-77-77-77-77----------------------------------|

Chorus Variation

Guitar 1
e|<12> natural harmonic|
B|---------------------|
G|---------------------|
D|---------------------|
A|---------------------|
E|---------------------|

Guitar2
e|---------------------------------------------------------------------------|
B|---------------------------------------------------------------------------|
G|-----------------222222--5-4-2---------------------------------------------|
D|-222222--555555--222222--5-4-2---------------------------------------------|
A|-222222--555555--000000--3-2-0---------------------------------------------|
D|-222222--555555---------0--------------------------------------------------|


Solo
e|12~--------------------------------------------------------------PH-------------|
B|---10-12-10---10---------------PH-------------------------------<12>------------|
G|------------12--12-9--9-12-9--<12>----------------------------------------------|
D|--------------------12------12-------------------12--12-14-12-14----------------|
A|------------------------------------12-10-12-14-12-14--14-----------------------|
D|--------------------------------------------------------------------------------|

e|---------------------------------------------------------------------/12-|
B|-----------------------------------------------------12--12-15p12h15-----|
G|--------------------------------------12--12-14p12h14--14----------------|
D|-----------------------12--12-14p12h14--14-------------------------------|
A|--------12--12-14p12h14--14----------------------------------------------|
D|17p14h17--17-------------------------------------------------------------|

Ends on the intro

e|---------------------------------------------------------------------------|
B|---------------------------------------------------------------------------|
G|---------------------------------------------------------------------------|
D|-----4-----------------4--------------4-----------------4------------------|
A|-222-2---5-7777-5--222-2---5-7777-222-2---5-7777-5--222-2---5-7777-5-5-0-2-|
D|-222---2-5-7777-5--222---2-5-7777-222---2-5-7777-5--222---2-5-7777-5-5-0-2-|

| /  slide up
| \  slide down
| h  hammer-on
| p  pull-off
| ~  vibrato
| +  harmonic
| x  Mute note
===================================================
Tap to rate this tab
# A B C D E F G H I J K L M N O P Q R S T U V W X Y Z