Song name
# A B C D E F G H I J K L M N O P Q R S T U V W X Y Z

Kids In Glass Houses - Lovely Bones tab

OK this is pretty much it, there are a few solo lead parts toward the end i
 couldn't hear properly, but i have managed to tab the best bits.
 Please rate and leave comments/correction. Thanks :)

Verse 1
E|----------------|
B|----------------|
G|----------------|
D|-7----2----4----|
A|-7x16-2x16-4x32-|
D|-7----2----4----|

Pre chorus (0:30)
E|----------------------------|
B|----------------------------|
G|-----9--------------------9-|     Rhythm guitar
D|---7--------9------9----7---| x4
A|-5--------7------7----5-----|
D|--------7------7------------|

E|-12-------------------|
B|----12-10-12-14-12-10-|    Lead guitar
G|----------------------|
D|----------------------| x4
A|----------------------|
D|----------------------|

Chorus (0:45)
E|-------------------|
B|-------------------|
G|-7-----------------| Rhythm guitar
D|-7--7--2-2-4-4-2-2-|
A|-5--7--2-2-4-4-2-2-|
D|----7--2-2-4-4-2-2-|

E|-------------------------------------|
B|-14-14-12-12-15-15-14-14-12-14-12----| Lead guitar
G|----------------------------------14-|
D|-------------------------------------|
A|-------------------------------------|
D|-------------------------------------|

Verse 2 (1:00)
E|-12-12----------|
B|-------14-14-14-|
G|----------------|
D|----------------|
A|----------------|
D|----------------|

part two (1:15)
E|--------------------------|
B|--------------------------|
G|--------------------------|
D|-11-11-11-11-9-9-11-------|
A|--------------------11-12-|
D|--------------------------|

Chorus 2 (1:30)

Bridge (2:00)
E|---------------12--12-----|
B|----5-----10--------------| x2
G|---2--9-9----9--9------9--|
D|--2-----------------------|
A|-0------------------------|
D|--------------------------|

(2:15)
E|-------------------|
B|-14-14-12-12-12----| x4
G|-------------------|
D|-------------------|
A|-------------------|
D|-------------------|

Chorus 3 (2:30)

Outro chords (3:00)
E|----------|
B|----------|
G|-7--------|
D|-7---7----|
A|-5---7----|
D|-----7----|
Tap to rate this tab
# A B C D E F G H I J K L M N O P Q R S T U V W X Y Z