Song name
# A B C D E F G H I J K L M N O P Q R S T U V W X Y Z

Kids In Glass Houses - Raise Hell tab

Artist: Kids In Glass Houses
Rhythm Guitarist: Joel Fisher
Song: Raise Hell
Album: E-Pocalypse!
Tabbed By: Lewis [lewis_mason21@hotmail.com]

This was done on request, though I'm not terribly good at guitar, the basics are here!  
anyone can tab lead from these basics, or even polish this tab up, then all the better!

Key:
~: Let Note Ring
/: Slide Up
\: Slide Down

[Tuning: Standard - E,A,D,G,B,e]


Intro:
("Well don't worry" ... "And I'm...")
e|-----------------------------------------------------------------------------------|
B|-----------------------------------------------------------------------------------|
G|-/5-5-5-5-5-5-5555--------------------10-10-10-10-10-10-10101010--7-7-7-7-7-7-7777-|
D|-/5-5-5-5-5-5-5555--7-7-7-7-7-7-7777--10-10-10-10-10-10-10101010--7-7-7-7-7-7-7777-|
A|-/3-3-3-3-3-3-3333--7-7-7-7-7-7-7777--8--8--8--8--8--8--8-8-8-8---5-5-5-5-5-5-5555-|
E|--------------------5-5-5-5-5-5-5555-----------------------------------------------| [x2]


Verse One:
("...Dying gradually" ... "How normal you are")
e|------------------------------------------------------------------------|
B|------------------------------------------------------------------------|
G|-5-5-5-5-5-5-5555--5-5-5-5-5-5-5555-------------------------------------|
D|-5-5-5-5-5-5-5555--5-5-5-5-5-5-5555--7-7-7-7-7-7-7777--7-7-7-7-7-7-7777-|
A|-3-3-3-3-3-3-3333--3-3-3-3-3-3-3333--7-7-7-7-7-7-7777--7-7-7-7-7-7-7777-|
E|-------------------------------------5-5-5-5-5-5-5555--5-5-5-5-5-5-5555-|

e|------------------------------------------------------------------------------------------|
e|------------------------------------------------------------------------------------------|
G|-10-10-10-10-10-10-10101010--7-7-7-7-7-7-7777--10-10-10-10-10-10-10101010--7-7-7-7-7-7-77-|
D|-10-10-10-10-10-10-10101010--7-7-7-7-7-7-7777--10-10-10-10-10-10-10101010--7-7-7-7-7-7-77-|
A|-8--8--8--8--8--8--8-8-8-8---5-5-5-5-5-5-5555--8--8--8--8--8--8--8-8-8-8---5-5-5-5-5-5-55-|
E|------------------------------------------------------------------------------------------|

Chorus:
("Perfect examples of" ... "People should be")
e|--------------------------------------------|
B|--------------------------------------------|
G|-10~---7~---5-5-5-5-5-5-5-5-----------------|
D|-10~---7~---5-5-5-5-5-5-5-5-7-7-7-7-7-7-7-7-|
A|-8~----5~---3-3-3-3-3-3-3-3-7-7-7-7-7-7-7-7-|
E|----------------------------5-5-5-5-5-5-5-5-|

e|-------------|
B|-------------|
G|-10~---7~----|
D|-10~---7~----|
A|-8~----5~----|
E|-------------|

e|------------------------------------------------------------------------|
B|------------------------------------------------------------------------|
G|-5-5-5-5-5-5-5555--5-5-5-5-5-5-5555-------------------------------------|
D|-5-5-5-5-5-5-5555--5-5-5-5-5-5-5555--7-7-7-7-7-7-7777--7-7-7-7-7-7-7777-|
A|-3-3-3-3-3-3-3333--3-3-3-3-3-3-3333--7-7-7-7-7-7-7777--7-7-7-7-7-7-7777-|
E|-------------------------------------5-5-5-5-5-5-5555--5-5-5-5-5-5-5555-|


Verse Two:
("Well I see the way" ... "How normal you are")
e|------------------------------------------------------------------------|
B|------------------------------------------------------------------------|
G|-5-5-5-5-5-5-5555--5-5-5-5-5-5-5555-------------------------------------|
D|-5-5-5-5-5-5-5555--5-5-5-5-5-5-5555--7-7-7-7-7-7-7777--7-7-7-7-7-7-7777-|
A|-3-3-3-3-3-3-3333--3-3-3-3-3-3-3333--7-7-7-7-7-7-7777--7-7-7-7-7-7-7777-|
E|-------------------------------------5-5-5-5-5-5-5555--5-5-5-5-5-5-5555-|

e|------------------------------------------------------------------------------------------|
e|------------------------------------------------------------------------------------------|
G|-10-10-10-10-10-10-10101010--7-7-7-7-7-7-7777--10-10-10-10-10-10-10101010--7-7-7-7-7-7-77-|
D|-10-10-10-10-10-10-10101010--7-7-7-7-7-7-7777--10-10-10-10-10-10-10101010--7-7-7-7-7-7-77-|
A|-8--8--8--8--8--8--8-8-8-8---5-5-5-5-5-5-5555--8--8--8--8--8--8--8-8-8-8---5-5-5-5-5-5-55-|
E|------------------------------------------------------------------------------------------|


Chorus: [Note: Play the bracketed chord softly before the bridge]
("Perfect examples of" ... "People should be")
e|--------------------------------------------|
B|--------------------------------------------|
G|-10~---7~---5-5-5-5-5-5-5-5-----------------|
D|-10~---7~---5-5-5-5-5-5-5-5-7-7-7-7-7-7-7-7-|
A|-8~----5~---3-3-3-3-3-3-3-3-7-7-7-7-7-7-7-7-|
E|----------------------------5-5-5-5-5-5-5-5-|

e|--------------------------------------------|
B|--------------------------------------------|
G|-10~---7~---5-5-5-5-5-5-5-5-----------------|
D|-10~---7~---5-5-5-5-5-5-5-5-7-7-7-7-7-7-7-7-|
A|-8~----5~---3-3-3-3-3-3-3-3-7-7-7-7-7-7-7-7-|
E|----------------------------5-5-5-5-5-5-5-5-|

e|---------------|
B|---------------|
G|-10~---(7~)----|
D|-10~---(7~)----|
A|-8~----(5~)----|
E|---------------|


Bridge: [Note: Only lead and bass play here I think, last chord is just as Aled sings]
e|--------REST--------|
B|--------REST--------|
G|--------REST--------|
D|--------REST--------|
A|--------REST--------|
E|--------REST--------|

e|----|
B|-5~-|
G|-5~-|
D|-5~-|
A|-3~-|
E|----|


Chorus: [Note: Play the bracketed chord softly before the bridge]
("Perfect examples of" ... "People should be")
e|--------------------------------------------|
B|--------------------------------------------|
G|-10~---7~---5-5-5-5-5-5-5-5-----------------|
D|-10~---7~---5-5-5-5-5-5-5-5-7-7-7-7-7-7-7-7-|
A|-8~----5~---3-3-3-3-3-3-3-3-7-7-7-7-7-7-7-7-|
E|----------------------------5-5-5-5-5-5-5-5-|

e|--------------------------------------------|
B|--------------------------------------------|
G|-10~---7~---5-5-5-5-5-5-5-5-----------------|
D|-10~---7~---5-5-5-5-5-5-5-5-7-7-7-7-7-7-7-7-|
A|-8~----5~---3-3-3-3-3-3-3-3-7-7-7-7-7-7-7-7-|
E|----------------------------5-5-5-5-5-5-5-5-|

e|-------------|
B|-------------|
G|-10~---7~----|
D|-10~---7~----|
A|-8~----5~----|
E|-------------|

Outro:
e|--------------------------------------------------------------------------|
B|--------------------------------------------------------------------------|
G|-5-5-5-5-5-5-5555--5-5-5-5-5-5-5555---------------------------------------|
D|-5-5-5-5-5-5-5555--5-5-5-5-5-5-5555--7-7-7-7-7-7-7777--7-7-7-7-7-7-7777-7-|
A|-3-3-3-3-3-3-3333--3-3-3-3-3-3-3333--7-7-7-7-7-7-7777--7-7-7-7-7-7-7777-7-|
E|-------------------------------------5-5-5-5-5-5-5555--5-5-5-5-5-5-5555-5-|
Tap to rate this tab
# A B C D E F G H I J K L M N O P Q R S T U V W X Y Z