Song name
# A B C D E F G H I J K L M N O P Q R S T U V W X Y Z

Kids In Glass Houses - Young Blood tab

Young Blood
By Kids in Glass Houses

Tabbed by MikeTelecaster6

Intro / Riff

                                            x2
E--------------------------------------------|
G--------------------------------------------|
B--10-10-10-10-9-9-9-------------------------|
D--------------------11-11-11----------9-9-9-|
A-----------------------------11-11-11-------|
E--------------------------------------------|

                                     x2
E------------------------------------|
G--------------------------10---9----|
B--11-11-11-11-9-9-9-9-9-9-9----9----|
D------------------------------------|
A------------------------------------|
E------------------------------------|
Tap to rate this tab
 
# A B C D E F G H I J K L M N O P Q R S T U V W X Y Z