Song name
# A B C D E F G H I J K L M N O P Q R S T U V W X Y Z

Kids In Glass Houses - Youngblood Let It Out tab

Hey. this song is awesome so hope this is right :)but it think it is.
im open for corrections.
o and i put the bass in just for fun :)

Guitar.


main riff

E--------------------------------------------| x4
B-10-10-10-10-9-9-9--------------------------|
G-------------------11-11-11----------9-9-9--|
D----------------------------11-11-11--------|
A--------------------------------------------|
E--------------------------------------------|

second riff

E--------------------------------------------| x2
B--------------------------------------------|
G--11-11-11-11-9-9-9-9-9-9--10--9------------|
D--------------------------------------------|
A--------------------------------------------|
E--------------------------------------------|

Chorus

E-x-x-x-x----------------------------------------|
B-x-x-x-x----------------------------------------|
G-x-x-x-x----------------------------------------|
D-x-x-x-x----2-2-2-2-2-2-2-2-2-2-2-2-2-2-2-2-----|
A-x-x-x-x x1 2-2-2-2-2-2-2-2-2-2-2-2-2-2-2-2-----| x2
E-x-x-x-x----0-0-0-0-0-0-0-0-0-0-0-0-0-0-0-0-----|

E-----------------------------------------------------------------| x2
B-----------------------------------------------------------------|
G-----------------------------------------------------------------|
D-4-4-4-4-4-4-4-4-4-4-4-4-4-4-4-4-7-7-7-7-7-7-7-7-7-7-7-7-7-7-7-7-|
A-4-4-4-4-4-4-4-4-4-4-4-4-4-4-4-4-7-7-7-7-7-7-7-7-7-7-7-7-7-7-7-7-|
E-2-2-2-2-2-2-2-2-2-2-2-2-2-2-2-2-5-5-5-5-5-5-5-5-5-5-5-5-5-5-5-5-|

Interlude

E-----------------------------------------------------|
B------9-------------------9--------------------------|
G--11-----9--8s9s8-x3--11-----9 on the last one.------|
D-----------------------------------------------------|
A-----------------------------------------------------|
E-----------------------------------------------------|

right thats the guitar done.

Bass.

Main Riff

G----------------------------------------------------------------------|
D----------------------------------------------------------------------|
A-7-7-7-7-7-7-7-7-7-7-7-7-7-7-7-7- x2 -4-4-4-4-4-4-4-4-4-4-4-4-4-4-4-4-|
E----------------------------------------------------------------------|

G---------------------------------|
D---------------------------------|
A-0-0-0-0-0-0-0-0-0-0-0-0-0-0-0-0-|
E---------------------------------|

G----------------------------------------------------------------------|
D----------------------------------------------------------------------|
A-7-7-7-7-7-7-7-7-7-7-7-7-7-7-7-7- x2 -4-4-4-4-4-4-4-4-4-4-4-4-4-4-4-4-|
E----------------------------------------------------------------------|

G-------------------------------------------------|
D-------------------------------------------------|
A-12-12-12-12-12-12-12-12-12-12-12-12-12-12-12-12-|
E-------------------------------------------------|

Chorus

G----------------------------------------------------------------------|
D----------------------------------------------------------------------|
A----------------------------------------------------------------------|
E-0-0-0-0-0-0-0-0-0-0-0-0-0-0-0-0- x2 -2-2-2-2-2-2-2-2-2-2-2-2-2-2-2-2-|

G---------------------------------| x2
D---------------------------------|
A---------------------------------|
E-5-5-5-5-5-5-5-5-5-5-5-5-5-5-5-5-|

right folks thats it :) i hope this helped you :)
Tap to rate this tab
# A B C D E F G H I J K L M N O P Q R S T U V W X Y Z