Song name
# A B C D E F G H I J K L M N O P Q R S T U V W X Y Z

Kids In Glass Houses - Matters At All tab

Kids In Glass Houses
Matters At All 

Any questions just comment, and don't forget to rate please!
Thank you, enjoy :D

Tuning - Standard (EADGBe)

###Intro###
[00:00 - 00:46]
 
Guitar 1

|--------5------|--------5------|
|----8-----8---8|----8-----8----|
|7-7---7-----7--|7-7---7-----7--|
|---------------|---------------|
|---------------|---------------|
|---------------|---------------|
 . .   .     .   . .   .     

Guitar 2 (come in on 5th bar, clean quiet sound)

|-----------------------|
|-----------------------|
|-----------------------|
|------------5 x14-7-7-7|
|5 x32-2 x16-3-----5-5-5|
|3-----0----------------|
 .
###Pre Chorus###
[00:46 - 00:58]

Guitar 1

|--------5------|
|----8-----8---8|
|7-7---7-----7--|
|---------------|
|---------------|
|---------------|
 . .   .     .

Guitar 2                   only on 1st Pre Chorus
                 x2        V
|0~----0~----0~---|----------|
|0~----5~----5~---|----------|
|4~----4~----5~---|----------|
|-----------------|----------|
|-----------------|----------|
|-----------------|----12\\\\|

###Chorus###
[00:58 - 01:22]

Guitar 1
              x6
|---------------|-----------------------------------------------|
|8-8-8-7-7-5-5-5|-----------------------------------------------|
|7-7-7-7-7-7-7-7|11-11-11-11-12-12-12-12-14-14-14-14-11-11-11-11|
|---------------|x--x--x--x--x--x--x--x--x--x--x--x--x--x--x--x-|
|---------------|9--9--9--9--10-10-10-10-12-12-12-12-9--9--9--9-|
|---------------|-----------------------------------------------|

|-------------------------------------------|
|8-----------10-7-----------10-8-------10-7-|
|----7--------------7--------------9--------|
|--------9--------------9-------------------|
|-------------------------------------------|
|-------------------------------------------|

Guitar 2

|----------------|
|----------------|
|----------5----7|
|5----2----5----7|
|5----2----3----5|
|3----0----------|



###Pre Verse###
[01:22 - 01:28]

Guitar 1

|--------5------|--------5------|
|----8-----8---8|----8-----8----|
|7-7---7-----7--|7-7---7-----7--|
|---------------|---------------|
|---------------|---------------|
|---------------|---------------|
 . .   .     .   . .   .     

###Verse###
[01:28 - 01:52]

###Pre Chorus###
[01:52 - 02:04]

###Chorus###
[02:04 - 02:28]

###Bridge###
[02:28 - 02:40]

Guitar 1    
                                    x2
|-------------------------------------|----------|
|8-8-8-8-------------10-10-10-10-10-10|8 x24-----|
|--------7-7-7-7----------------------|----------|
|----------------9-9------------------|----------|
|-------------------------------------|----------|
|-------------------------------------|----------|

|----------|
|----------|
|----------|
|----------|
|----------|
|8-7----3-5|

Guitar 2

|-------------|-----|----------------|-------------------------------|----------|
|-------------|-----|----------------|-------------------------------|----------|
|-------------|-----|----------------|-------------------------------|----------|
|2-2-2-2-2----|-----|2-2-2-2-2-------|5-5-5-5-5-5-5-5-5-5-5-5-5-5-5-5|----------|
|2-2-2-2-2----|-----|2-2-2-2-2-------|5-5-5-5-5-5-5-5-5-5-5-5-5-5-5-5|----------|
|0-0-0-0-0----|-----|0-0-0-0-0----0-2|3-3-3-3-3-3-3-3-3-3-3-3-3-3-3-3|8-7----3-5|

###Break###
[02:40 - 02:52]

Guitar 1
              x6
|---------------|-----------------------------------------------|
|8-8-8-7-7-5-5-5|-----------------------------------------------|
|7-7-7-7-7-7-7-7|11-11-11-11-12-12-12-12-14-14-14-14-11-11-11-11|
|---------------|x--x--x--x--x--x--x--x--x--x--x--x--x--x--x--x-|
|---------------|9--9--9--9--10-10-10-10-12-12-12-12-9--9--9--9-|
|---------------|-----------------------------------------------|

Guitar 2 (come in for last 2 bars)
               x2
|---------------|
|---------------|
|7-7-7-7-7-7-7-7|
|7-7-7-7-7-7-7-7|
|5-5-5-5-5-5-5-5|
|---------------|


###Chorus### (at the end of this chours guitar 1 does the octave melody into the outro)
[02:52 - 03:16]

###Outro###
[03:16 - end]
                                                       x2
|---|-----------------------------------------------|
|---|-----------------------------------------------|
|12-|11-11-11-11-12-12-12-12-14-14-14-14-11-11-11-11|
|x--|x--x--x--x--x--x--x--x--x--x--x--x--x--x--x--x-|
|10-|9--9--9--9--10-10-10-10-12-12-12-12-9--9--9--9-|
|---|-----------------------------------------------|

Guitar 2
(Chorus Chords)

Tap to rate this tab
# A B C D E F G H I J K L M N O P Q R S T U V W X Y Z