Song name
# A B C D E F G H I J K L M N O P Q R S T U V W X Y Z

Kids In Glass Houses - Give Me What I Want tab

I noticed there was no correct tabs for this epic tune so i thought i would
give it a go and post it up here for you guys (: its not perfect but its a
start.

Comment and rate please but go easy, its my first tab.

Artist - Kids In Glass Houses
Song - Give Me What I Want
Album - Smart Casual
Year - 2008


- Intro

e|-----7------2----4-|-----7------2----4-|
B|-------------------|-------------------|
G|-------------------|-------------------|
D|---6------2--------|---6------2--------|
A|-4------0------0---|-4------0------0---|
E|-------------------|-------------------|
 

- Verse

e|-----7------2----4-|-----7------2----4-| x 4
B|-------------------|-------------------|
G|-------------------|-------------------|
D|---6------2--------|---6------2--------|
A|-4------0------0---|-4------0------0---|
E|-------------------|-------------------|
 

- Verse 2

e|-------------| x 2
B|-------------|
G|---x16---x16-|
D|-4-----7-----|
A|-4-----7-----|
E|-2-----5-----|

- chorus

e|---------------------------| x 4
B|---------------------------|
G|-9-9--4-4--9-9--2-2--------|
D|-9-9--4-4--9-9--2-2--------|
A|-7-7--2-2--7-7--0-0--------|
E|---------------------------|

e|---------------------------|
B|------7-7-------12-12------|
G|-9-9--8-8--9-9--11-11------|
D|-9-9-------9-9-------------|
A|---------------------------|
E|---------------------------|

- verse

e|-----7------2----4--| X 8 
B|--------------------|
G|--------------------|
D|---6------2---------|
A|-4------0------0----|
E|--------------------|

- Verse 2

e|-------------| x 2
B|-------------|
G|---x16---x16-|
D|-4-----7-----|
A|-4-----7-----|
E|-2-----5-----|

- chorus

e|---------------------------| x 4
B|---------------------------|
G|-9-9--4-4--9-9--2-2--------|
D|-9-9--4-4--9-9--2-2--------|
A|-7-7--2-2--7-7--0-0--------|
E|---------------------------|

e|---------------------------| x 4
B|------7-7------------------|
G|-9-9--8-8--9-9-------------|
D|-9-9-------9-9--9-9--------|
A|----------------9-9--------|
E|---------------------------|

- Interlude

e|-------------------------|
B|----------------x16--x16-|
G|---x16---x16--6-----2----|
D|-4-----7------6-----2----|
A|-4-----7------4-----0----|
E|-2-----5-----------------|


e|---------------------------| x 2
B|------7-7------------------|
G|-9-9--8-8--9-9-------------|
D|-9-9-------9-9--9-9--------|
A|----------------9-9--------|
E|---------------------------|

- Chorus

e|-----------|x 8
B|-----------|
G|-11-11-6-6-|
D|-11-11-6-6-|
A|--9-9--4-4-|
E|-----------|

- Outro

e|--------|
B|--------|
G|-11-6-4-|
D|-11-6-4-|
A|--9-4-2-|
E|--------|
Tap to rate this tab
 
# A B C D E F G H I J K L M N O P Q R S T U V W X Y Z