Song name
# A B C D E F G H I J K L M N O P Q R S T U V W X Y Z

Kids In Glass Houses - Maybe Tommorrow tab

-------------------------------------------------------------------------------
			     Maybe Tommorrow -Kids in Glass Houses
-------------------------------------------------------------------------------


Tuning: Standard

e|12---------------------------12-------------------------------------------|
B|-----13-----------------------------13------------------------------------|
G|--14---12---12-12-12-14-14-------14---12----12-12-12----------------------|
D|----------------------------------------------------14-14-----------------|
A|--------------------------------------------------------------------------|
E|--------------------------------------------------------------------------|

Repeat as necessary

Chorus x2


e|---------------------------------------------------------------------------|
B|---------------------------------------------------------------------------|
G|------------5--------------------------------------------------------------|
D|-7-----3----5----5---6-----------------------------------------------------|
A|-7-----3----3----5---6-----------------------------------------------------|
E|-5-----1---------3---4-----------------------------------------------------|


Verse

Chorus x2

Bridge

e|--------------------------------------------------------------------------|
B|--------------------------------------------------------------------------|
G|---------12--------repat as necessary-------------------------------------|
D|-10-9-10------------------------------------------------------------------|
A|--------------------------------------------------------------------------|
E|--------------------------------------------------------------------------|


Chorus x2
Bridge x4

Outro

e|--------------------------------------------------------------------------|
B|--------------------------------------------------------------------------|
G|------5--------------------5----------------------------------------------|
D|-7----5----3----5-----7----5----3----5---6---7----------------------------|
A|-7----3----3----5-----7----3----3----5---6---7----------------------------|
E|-5---------1----3-----5---------1----3---4---5----------------------------|

************************************

| /   slide up
| \   slide down
| h   hammer-on
| p   pull-off
| ~   vibrato
| +   harmonic
| x   Mute note
| b   Bend
| pb  Pre-bend
| br  Bend release
| pbr Pre-bend release
| brb Bend release bend

************************************
Tap to rate this tab
 
# A B C D E F G H I J K L M N O P Q R S T U V W X Y Z