Song name
# A B C D E F G H I J K L M N O P Q R S T U V W X Y Z

Kids In Glass Houses - Dance All Night tab

-------------------------------------------------------------------------------
			     Dance All Night - Kids In Glass Houses
-------------------------------------------------------------------------------
Tabbed by: James Keatley

Tuning: 1 Whole step down, D G C F A d

this tab is far from complete, i'm adding it to show the correct way to play the intro 
mostly,
the intro work i believe has at least one guitar a whole step down, resulting in the 
of the intro.

the parts are ordered as best i can, play each one and you should work out where it 
a fair bit of repetition is used in this track,
tabbing as such would look a mess. version 2 has all the other parts correctly, simply 
them.

Intro, Repeat as needed, 6th string also optional, listen for the strumming patten.

d|-0--0-0--0--0-0--0---0---0--0---0--0--------|
A|-0--0-0--0--0-0--0---0---0--0---0--0--------|
F|-6--6-6/-8--8-8/-9---9---9--9\--8\-6--------|
C|-7--7-7/-9--9-9/-11--11--11-11\-9\-7--------|
G|-7--7-7/-9--9-9/-11--11--11-11\-9\-7--------|
D|-0--0-0--0--0-0--0---0---0--0---0--0--------|

Leads
d|------------------------------------------|
A|-9-9-9--10-10-9--12-12-12-9--9-9-10-9-7-9-|
F|------------------------------------------|
C|------------------------------------------|
G|------------------------------------------|
D|------------------------------------------|

d|-------------------------------------------------|
A|-9-9-9-10-9--9-9-10-9--12-12--9-9-10-9--9-9-10-9-|
F|-------------------------------------------------|
C|-------------------------------------------------|
G|-------------------------------------------------|
D|-------------------------------------------------|

Verses repeat intro chords

Verse riffs
d|--------------------|
A|-5---7---9----9-7---|
F|--6---8---9---9-8---|
C|---7---9---9--------|
G|--------------------|
D|--------------------|

Chorus riffs.
d|-----------------------------------------------|
A|-----------------------------------------------|
F|----9----------9----------9----------9---------|
C|-77-9-999-6677-9-999-6677-9-999-6677-9-999-667-|
G|-77-7-999-6677-7-999-6677-7-999-6677-7-999-667-|
D|-55---777-4455---777-4455---777-4455---777-445-|
Tap to rate this tab
# A B C D E F G H I J K L M N O P Q R S T U V W X Y Z