Song name
# A B C D E F G H I J K L M N O P Q R S T U V W X Y Z

Kids In Glass Houses - Girls tab

-------------------------------------------------------------------------------
			     Girls - Kids In Glass Houses
-------------------------------------------------------------------------------
Tabbed by:Ross123
Tuning:Standard

Intro pt 1

e|--------------------------------------------------------------------------|
B|---9-9-9-----9-9-9----9-9-9-------9---------------------------------------|
G|---9-9-9-----9-9-9----9-9-9-11-11-9---------------------------------------|
D|---9-9-9-----9-9-9----9-9-9-9--9--9---------------------------------------|
A|---7-7-7-----7-7-7----7-7-7-7--7--7---------------------------------------|
E|--------------------------------------------------------------------------|


Intro pt 2
e|---------------------------------------------------------------------------|
B|-9----9-------------------10---10---9--------------------------------------|
G|-9----9-------11----11----9----9----9-------9--11--9-----------------------|
D|-9----9-------9-----9-----9----9----9--------------------------------------|
A|-7----7-------7-----7-----7----7----7--------------------------------------|
E|---------------------------------------------------------------------------|

e|---------------------------------------------------------------------------|
B|-5---5---5---5---5---5--5-----5---7---5------------------------------------|
G|-6---6---6---6---6---6--6--------------------------------------------------|
D|-6---6---6---6---6---6--6--------------------------------------------------|
A|-4---4---4---4---4---4--4--------------------------------------------------|
E|---------------------------------------------------------------------------|
This whole thing x 2

Verse (Repeat as necessary

e|-----------------------------------------------------------------------------|
B|-9------------------------5--------------------------------------------------|
G|-9------------------------6--------------------------------------------------|
D|-9------------------------6--------------------------------------------------|
A|-7------------------------4--------------------------------------------------|
E|-----------------------------------------------------------------------------|

Pre Chorus (let chords ring)
e|-----------0--------------------------------------------------------------|
B|--2--------0--------2----------4------------------------------------------|
G|--2--------1--------2----------4------------------------------------------|
D|--2--------2--------2----------4------------------------------------------|
A|--0--------2--------0----------2------------------------------------------|
E|-----------0--------------------------------------------------------------|


Chorus 1- Same as verse but strum chords instead of letting them ring

Intro pt 2 X1

Verse

Pre Chorus


Chorus


Bridge ( play every chord apart from the c# and c stacatto)


e|--------------------------------------------------------------------------|
B|-9-------10--------9------------------------------------------------------|
G|-9-------9---------9------------------------------------------------------|
D|-9--x-8--9---x-4---9-----x-4----------------------------------------------|
A|-7- -----7---------7------------------------------------------------------|
E|--------------------------------------------------------------------------|
 Play this whole thing 3 times

e|--------------------------------------------------------------------------|
B|-9------------------5-----------------------------------------------------|
G|-9------------------6------5----------------------------------------------|
D|-9-----x12----------6------5----------------------------------------------|
A|-7------------------4------3----------------------------------------------|
E|--------------------------------------------------------------------------|

Chorus again but add c# and c at the end

Outro ( Strumming isnt shown figure it out)
e|--------------------------------------------------------------------------|
B|-9-------------------------5------------5---7---5-------------------------|
G|-9-------------9--11--9----6----------------------------------------------|
D|-9-------------------------6----------------------------------------------|
A|-7-------------------------4----------------------------------------------|
E|--------------------------------------------------------------------------|

x3


e|----------------------------------------------------------------------------------|
B|-9-------------------------5------------5---7---5--------5--7--5------------------|
G|-9-------------9--11--9----6------------------------5-----------------------------|
D|-9-------------------------6------------------------5-----------------------------|
A|-7-------------------------4------------------------3-----------------------------|
E|----------------------------------------------------------------------------------|


e|---------------------------------------------------------------------------|
B|-9-------------------------------------------------------------------------|
G|-9-------------9--11--9----------------------------------------------------|
D|-9-------------------------------------------------------------------------|
A|-7-------------------------------------------------------------------------|
E|---------------------------------------------------------------------------|


************************************

| /   slide up
| \   slide down
| h   hammer-on
| p   pull-off
| ~   vibrato
| +   harmonic
| x   Mute note
| b   Bend
| pb  Pre-bend
| br  Bend release
| pbr Pre-bend release
| brb Bend release bend

************************************
Tap to rate this tab
# A B C D E F G H I J K L M N O P Q R S T U V W X Y Z