Song name
# A B C D E F G H I J K L M N O P Q R S T U V W X Y Z

Kids In Glass Houses - Girls tab

Kids In Glass Houses - Girls

Tuning - Standard

Any questions just comment
and don't forget to rate!
Thanks, enjoy.


< Guitar 1 >

###Intro###
[00:00 - 00:04]

|12-12-12---12-12-12------------------|
|12-12-12---12-12-12--9-9-9-10-10-10-9|
|9--9--9----9--9--9---9-9-9-11-11-11-9|
|-------------------------------------|
|-------------------------------------|
|-------------------------------------|

###Intro 2###
[00:05 - 00:22]

                                    x2                                             x2
|------------------------------------|-------------------|-------------------------|
|------------------------------------|-------------------|-------------------------|
|------------------------------------|-------------------|-------------------------|
|18-18-16-16-19-19-18-18--16h18-18-18|14h16-16-16---16-16|-16---16-16-16---16-16-16|      x2
|------------------------------------|-------------------|-------------------------|
|------------------------------------|-------------------|-------------------------|
                                                         ^>>Stop here on last time

###Verse###
[00:23 - 00:43]

           x2                                                                x2
|0~---------|2p0-------------------------------2h4----------------------------|
|----0~-----|----2/5---5-5-5---5-5-5---5-5-5-------2/5---5-5-5---5-5-5---5-5-5|
|-----------|-----------------------------------------------------------------|
|-----------|-----------------------------------------------------------------|
|-----------|-----------------------------------------------------------------|
|-----------|-----------------------------------------------------------------|
                       . . .   . . .   . . .             . . .   . . .   . . .

###Pre Chorus###
[00:44 - 00:53]

|2----2----2----------2----2----2---4p2-----2----2----2----------2----2------|
|---5----5----5-2-5------5----5---------5------5----5----5-2-5------5----5--5|
|----------------------------------------------------------------------------|
|----------------------------------------------------------------------------|
|----------------------------------------------------------------------------|
|----------------------------------------------------------------------------|

###Chorus###
[00:54 - 01:13]

                                   x2                                       x2
|--------------------2p0-----------0|--------------------------------------12| 
|------------------------2p0-----0--|-------------------------10p9------12---|
|----------------------------1h2~---|---------------------6/9------11p9------|   x2
|-----------------------------------|----------------------------------------|
|-----------------------------------|----------------------------------------|
|-----------------------------------|----------------------------------------|

###Intro 2### (Don't stop half way through like first time through though)
[01:14 - 01:23]

###Verse 2###
[01:24 - 01:42]

|4---(4)---(4)---(4)---(4)|0---(0)---(0)---(0)---(0)|
|5---(5)---(5)---(5)---(5)|5---(5)---(5)---(5)---(5)|
|4---(4)---(4)---(4)---(4)|4---(4)---(4)---(4)---(4)|     x2
|-------------------------|-------------------------|
|-------------------------|-------------------------|
|-------------------------|-------------------------|
Then Play Verse like before

###Pre Chorus###
[01:43 - 01:52]

Play this at end
|2h4p2----|
|--------0|
|---------|
|---------|
|---------|
|---------|

###Chorus###
[01:53 - 02:12]

###Bridge###
[02:13 - 02:35]

All played in staccato
                                  x3
|7-7-7-7-7-7-7-7-12-12-12----------|12-12-12-12---------12-12-12-12|
|7-7-7-9-9-9-9-9-10-10-10-9-9-9-9-9|10-10-10-10-9-9-9-9-10-10-10-10|
|9-9-9-9-9-9-9-9-9--9--9--9-9-9-9-9|9--9--9--9--9-9-9-9-9--9--9--9-|
|----------------------------------|-------------------------------|
|----------------------------------|-------------------------------|
|----------------------------------|-------------------------------|

|0~------------0~|
|2~------------1~|
|----------------|
|----------------|
|----------------|
|----------------|

###Bridge 2###
[02:36 - end]

(play first part of chorus)

                                     x5
|12-12-12---12-12-12------------------|----------------------------------------|
|12-12-12---12-12-12--9-9-9-10-10-10-9|10-10-10-10---10-10-10---9-9-9-9-10-10-9|
|9--9--9----9--9--9---9-9-9-11-11-11-9|11-11-11-11---11-11-11---9-9-9-9-11-11-9|
|-------------------------------------|----------------------------------------|
|-------------------------------------|----------------------------------------|
|-------------------------------------|----------------------------------------|

Repeat, but play first part seven times

|12-12-12---12-12-12------------------|12--|
|12-12-12---12-12-12--9-9-9-10-10-10-9|12--|
|9--9--9----9--9--9---9-9-9-11-11-11-9|9---|
|-------------------------------------|----|
|-------------------------------------|----|
|-------------------------------------|----|



< Guitar 2 >




###Intro 2###
[00:05 - 00:23]
                        x7
|---------------0-0h2p0--|----------|
|4---5--5-5--5----------0|4---5--5-5|
|4---4--4-4--4-----------|4---4--4-4|
|2---2--2-2--2-----------|2---2--2-2|
|------------------------|----------|
|------------------------|----------|

###Verse###
[00:24 - 00:43]
                                                                         x2
|0~-----|-----------------------------------------------------------------|
|-----0~|-----------------------------------------------------------------|
|-------|-----------------------------------------------------------------|
|-------|-----------------------------------------------------------------|
|-------|6h7-7-7---7-7-7---7-7-7---7-7-7---2/4-4-4---4-4-4---4-4-4---4-4-4|
|-------|-----------------------------------------------------------------|
^                  . . .   . . .   . . .             . . .   . . .   . . .
^> Only play once, guitar 1 plays twice

###Pre Chorus###
[00:44 - 00:53]
                
|----------------|-----------------------------|
|5----------5---5|5----------5---4--4-4-4---4-4|
|4----------4---4|4----------4---4--4-4-4---4-4|
|2----------2---2|2----------2---2--2-2-2---2-2|
|0----------2---2|0----------2---2--2-2-2---2-2|
|---------------0|-----------------------------|

###Chorus###
[00:54 - 01:12]

Repeat for whole of chorus
|7---7---7------|
|7---7---7------|
|8---9---9------|
|9---9---9------|
|7---7---7------|
|---------------|


###Intro 2###
[01:13 - 01:22]


###Verse 2###
[01:23 - 01:42]

Enter with this..
|0----|
|----0|
|-----|
|-----|
|-----|
|-----|

Then Verse as normal


###Pre Chorus###
[01:43 - 01:52]

###Chorus###
[01:53 - 02:12]

###Bridge###
[02:13 - 02:35]

|-------------|-------------------------------|0------0|
|-------------|-------------------------------|5------5|
|-------------|-------------------------------|4------4|
|7-------2----|7-------2-2-2-2-4-4-4-4-6-6-6-6|2------2|
|7 x16---2 x16|7 x16---2-2-2-2-4-4-4-4-7-7-7-7|--------|
|5-------0----|5-------0-0-0-0-2-2-2-2-4-4-4-4|--------|


###Chorus###
[02:36 - 02:52]

End of Chorus play..
[02:53 - 02:56]

|0-----0|
|1-----0|
|-------|
|-------|
|-------|
|-------|

###Last Chorus###
[02:57 - End]

(play the same as intro 2, but hold on this near the end..
[03:13]

|0~-------------|0~--|
|1~-------------|0~--|
|---------------|----|
|---------------|----|
|---------------|----|
|---------------|----|
Tap to rate this tab
# A B C D E F G H I J K L M N O P Q R S T U V W X Y Z