Song name
# A B C D E F G H I J K L M N O P Q R S T U V W X Y Z

Kids In Glass Houses - Give Me What I Want tab

---------------------------------------------------------------
	Give Me What I Want - Kids In Glass Houses
---------------------------------------------------------------

Tabbed by: Tom Rowell (Trowzaa)
Song name: Give Me What I Want (Me, Me, Me)
Artist: Kids In Glass Houses
Album: Smart Casual
Tuning: Standard (EADGBe)

Noticed there wasn't a 5 star tab for this and all the other tabs are played 
differently to how I play it, I believe this is the easiest way to play it. This 
is just the lead guitar for now, I'll add the rhythm part in at a later time. Please rate.
Cheers, Tom x

Intro/Verse 1

e|--------7--------------4----------7--------------4----------------|
B|-----------------7-------------------------7----------------------|
G|------------------------------------------------------------8-----|
D|----6---------4-----4----------6--------4-----4----------/9---9---|
A|-4---------4----------------4--------4----------------------------|
E|------------------------------------------------------------------|x5
pm .  .      .  .     .       .  .     .  .     .   

Pre Chorus

e|-5--4------/12-12-9-7-9-7-9--|
B|------5----------------------|
G|--------6--------------------|
D|-----------------------------|
A|-----------------------------|
E|-----------------------------| x 3

e|-5--4------/12-12-9-7-9-7-5--|
B|------5----------------------|
G|--------6--------------------|
D|-----------------------------|
A|-----------------------------|
E|-----------------------------|

Chorus

    E    B    E    A
e|---------------------------|
B|--9-9-------9-9------------|
G|--9-9--8-8--9-9--6-6--666--|
D|--9-9--9-9--9-9--7-7--777--|
A|--7-7--9-9--7-7--7-7--777--|
E|-------7-7-------5-5--555--| x8

Break

e|-------------------------|
B|--5-5--4-4--5-5--7-7~\---|
G|--4-4--4-4--4-4--4-4~\---|
D|-------------------------|
A|-------------------------|
E|-------------------------|

Verse 2

e|--------7--------------4----------7--------------4----------------|
B|-----------------7-------------------------7----------------------|
G|------------------------------------------------------------8-----|
D|----6---------4-----4----------6--------4-----4----------/9---9---|
A|-4---------4----------------4--------4----------------------------|
E|------------------------------------------------------------------|x4
pm .  .      .  .     .       .  .     .  .     .   

Pre Chorus

e|-5--4------/12-12-9-7-9-7-9--|
B|------5----------------------|
G|--------6--------------------|
D|-----------------------------|
A|-----------------------------|
E|-----------------------------| x 3

e|-5--4------/12-12-9-7-9-7-5--|
B|------5----------------------|
G|--------6--------------------|
D|-----------------------------|
A|-----------------------------|
E|-----------------------------|

Chorus

    E    B    E    A
e|---------------------------|
B|--9-9-------9-9------------|
G|--9-9--8-8--9-9--6-6--666--|
D|--9-9--9-9--9-9--7-7--777--|
A|--7-7--9-9--7-7--7-7--777--|
E|-------7-7-------5-5--555--| x8

Bridge

    E
e|---------------------------|
B|--9-9--9-9--9-9--9-9~------|
G|--9-9--9-9--9-9--9-9~------|
D|--9-9--9-9--9-9--9-9~------|
A|--7-7--7-7--7-7--7-7~------|
E|---------------------------| x4

Pre Chorus

e|-5--4------/12-12-9-7-9-7-9--|
B|------5----------------------|
G|--------6--------------------|
D|-----------------------------|
A|-----------------------------|
E|-----------------------------| x 3

e|-5--4------/12-12-9-7-9-7-5--|
B|------5----------------------|
G|--------6--------------------|
D|-----------------------------|
A|-----------------------------|
E|-----------------------------|

Chorus
Quietly

    E    B    E    A
e|---------------------------|
B|--9-9-------9-9------------|
G|--9-9--8-8--9-9--6-6--666--|
D|--9-9--9-9--9-9--7-7--777--|
A|--7-7--9-9--7-7--7-7--777--|
E|-------7-7-------5-5--555--| x2

KEY CHANGE
Distortion

    F#     C#     F#     B
e|-----------------------------------|
B|--11-11---------11-11--------------|
G|--11-11--10-10--11-11--8-8--888----|
D|--11-11--11-11--11-11--9-9--999----|
A|--9--9---11-11--9--9---9-9--999----|
E|---------9--9----------7-7--777----| x4

CLIMAX
Crank it

    F#      C#      F#      B
e|--------------------------------|
B|--11--------------11------------|
G|--11------10------11------8-----|
D|--11------11------11------9-----|
A|--9--x3---11-x3---9--x3---9-x7--|
E|----------9---------------7-----| x4

Ending

   B  F#  C#
e|-7--9---9~-----|
B|-7--11--9~-----|
G|-8--11--10~----|
D|-9--11--11~----|
A|-9--9---11~----|
E|-7------9~-----|

And that's about it. Pretty simple song really, please rate :)
Tap to rate this tab
# A B C D E F G H I J K L M N O P Q R S T U V W X Y Z