Song name
# A B C D E F G H I J K L M N O P Q R S T U V W X Y Z

Kids In Glass Houses - Good Boys Gone Rad tab

Tabbed By Me Bandofguitars - From youtube

watch my video for a demonstration

I had to work this all out by ear so enjoy!

Tuning - Dadgbe

INTRO
e|--------------------------------------------------------|
B|--------------------------------------------------------|
G|-------7------------------------------------------------|
D|--9----7----5----------9-----7-----5--------------------|
A|--9----5----5----------9-----7-----5--------------------|
D|--9---------5----------9-----7-----5--------------------|

e|--------------------------------------------------------|
B|--------------------------------------------------------|
G|-------7------------------------------------------------|
D|--9----7----5----------9-----7-----5-5-5-5-5-5-5-5------|
A|--9----5----5----------9-----7-----5-5-5-5-5-5-5-5------|
D|--9---------5----------9-----7-----5-5-5-5-5-5-5-5------|

************************************************************

Verse 1
e|--------------------------------------------------------|
B|--------------------------------------------------------|
G|--------------------------------------------------------|
D|--------------------------------------------------------| x4 
A|--------------------------------------------------------|
D|--9--12----4--5----2-----------9--12----4--5----2-------|

************************************************************

CHORUS
e|--------------------------------------------------------|
B|--------------------------------------------------------|
G|--------------------------------------------------------|
D|--9---------7---------5---------4-------7---------------| x2
A|--9-(x16)---7-(x16)---5-(x16)---4-(x8)--7-(x8)----------|
D|--9---------7---------5---------4-------7---------------|

************************************************************

Fill 1 - best with 2 guitars!
e|--------------------------------------------------------|
B|--------------------------------------------------------|
G|-------6-6----------6-6--------6-6--------6-6-----------|
D|--9-9--6-6-----9-9--6-6---9-9--6-6---9-9--6-6-----------|
A|--9-9----------9-9--------9-9--------9-9----------------|
D|--9-9----------9-9--------9-9--------9-9----------------|

************************************************************

VERSE 2
e|--------------------------------------------------------|
B|--------------------------------------------------------|
G|--------------------------------------------------------|
D|--------------------------------------------------------| x4 
A|--------------------------------------------------------|
D|--9--12----4--5----2-----------9--12----4--5----2-------|


************************************************************

CHORUS
e|--------------------------------------------------------|
B|--------------------------------------------------------|
G|--------------------------------------------------------|
D|--9---------7---------5---------4-------7---------------| x2
A|--9-(x16)---7-(x16)---5-(x16)---4-(x8)--7-(x8)----------|
D|--9---------7---------5---------4-------7---------------|

************************************************************

BRIDGE
e|--------------------------------------------------------|
B|--------------------------------------------------------|
G|--------------------------------------------------------|
D|--------------------------------------------------------|
A|-----------5---------------------------5----------------|
D|--7--9--7-------7---4-5--2----7--9--7-------7---4-5--2--|


************************************************************

CHORUS
e|--------------------------------------------------------|
B|--------------------------------------------------------|
G|--------------------------------------------------------|
D|--9---------7---------5---------4-------7---------------| x2
A|--9-(x16)---7-(x16)---5-(x16)---4-(x8)--7-(x8)----------|
D|--9---------7---------5---------4-------7---------------|

************************************************************

OUTRO
e|--------------------------------------------------------|
B|--------------------------------------------------------|
G|-------6-6----------6-6--------6-6--------6-6--6-6\-----|
D|--9-9--6-6-----9-9--6-6---9-9--6-6---9-9--6-6--6-6\-----|
A|--9-9----------9-9--------9-9--------9-9----------------|
D|--9-9----------9-9--------9-9--------9-9----------------|
Tap to rate this tab
# A B C D E F G H I J K L M N O P Q R S T U V W X Y Z