Song name
# A B C D E F G H I J K L M N O P Q R S T U V W X Y Z

Kids In Glass Houses - The Morning Afterlife chords

Highlighted       Show chord diagrams
TABBED BY FUS10N3DGE (razzanator94@hotmail.com)
TUNING: STANDARD (EADGBe)

---INTRO---
(piano part)
A                F#m             E               D  
[----0-5-7~~-9~~~----0-5-7~~-9~~~----0-5-7~~-9~~~----0-5-10~~-9~~~----]
[---------------------------------------------------------------------]
[---------------------------------------------------------------------]
[---------------------------------------------------------------------]
[---------------------------------------------------------------------]
[---------------------------------------------------------------------]

(muted guitar)
[---------------------------------------------------------------------]
[---------------------------------------------------------------------]
[----9-------9-------9-------9-------9-------9-------9-------9-------9]
[6797-7676797-7676797-7676797-7676797-7676797-7676797-7676797-7676797-]
[---------------------------------------------------------------------]
[---------------------------------------------------------------------]
(continue through first verse)

---VERSE---
     A                                F#m
Give me one good reason why I should trust
                           E
Or see the good in most of us
                                      D
When we came with love and left with lust
                                        A
When we came with lies and learned to trust.
                         F#m
Give me good reason to believe 
                       E
In all I do and all I see
         D
In all I see

 Bm                      F#m         E
Slip into something more comfortable
 Bm                             E
They like you best when you are vulnerable

---CHORUS---
                           A
Just when you thought the world was yours
                     F#m        
When you thought you had it all
                            E                                   D
Just when you thought you'd done enough to get you through the night,
                  A
The night, night.
                                     F#m
Just when you thought the world was yours
                            E
When you thought you had it all
                                    D                                A
Just when you thought you'd done enough to get you through the night,
                F#m
The night, night
                 E
The night, night
                 D
The night, night

---VERSE---
     A                               F#m
Give me one good reason why I should trust
                                 E
In all these things that turn to dust
                                D
When we beg we get down on our knees
                               A
When we're full we want to be empty
                                   F#m
You loved the chase till it slowed down
                               E
You love the hunt till it hit town,
             D
Till it hit town.


Bm             E        F#m     E
Slip into something invincible

---CHORUS---(x2)
(dist. on second chorus)

---SOLO---
Gtr 1 (dist.)
[----------------------------------------------]
[----------------------------------------------]
[76----76-9~~~~~~~-----------------------------]
[--67----6-------------------------------------]
[----------------------------------------------]
[----------------------------------------------]

Gtr 2 (dist.)
[----------------------------------------------]
[----------------------------------------------]
[----------------------------------------------]
[----------------------------------------------]
[54----54-7~~~~~~~-----------------------------]
[--45----4-------------------------------------]


            Bm                         F#m
Who do you trust when all I know is just a hole in

All the world?
              A                     E
And Iíve been somewhere, Iíve been somewhere
           Bm                       F#m    
Who do you turn to when the best of everyone you

Knew has turned on?
          A                  E
Iíve been somewhere, Iíve been somewhere

---CHORUS---(x5)
(dist. off on last chorus)
end: ( A F#m E D A, let last A ring)
Tap to rate this tab
# A B C D E F G H I J K L M N O P Q R S T U V W X Y Z