Song name
# A B C D E F G H I J K L M N O P Q R S T U V W X Y Z

Kids In Glass Houses - Artbreaker I tab

This is my first tab and I'm particularly proud of it, so rate or whatever :P

Tuning: Drop D

Intro:

e --0-----------------------------------|
B --0-(let ring)------------------------|
G --0-----------------------------------|
D --------------------0-(let ring)------|
A --------------------------------------|
D --------------------------------------|

e ------------------------------------------|
B ------------------------------------------|
G -----7--------------------7---------------|
D --57---57---3-3-55-77--57---57--3-3-03-55-|
A --57--------3-3-55-77--57-------3-3-03-55-|
D --57--------3-3-55-77--57-------3-3-03-55-|

e ------------------------------------------|
B ------------------------------------------|
G -----7--------------------7---------------|
D --57---57---3-3-55-77--57---57--3-3-03----|
A --57--------3-3-55-77--57-------3-3-03----|
D --57--------3-3-55-77--57-------3-3-03----|

e ------------------------------------------|
B ------------------------------------------|
G -----7--------------------7---------------|
D --57---57---3-3-55-77--57---57--3-3-03-55-|
A --57--------3-3-55-77--57-------3-3-03-55-|
D --57--------3-3-55-77--57-------3-3-03-55-|

e ------------------------------------------|
B ------------------------------------------|
G -----7--------------------7---------------|
D --57---57---3-3-55-77--57---57--3-3-03----|
A --57--------3-3-55-77--57-------3-3-03----|
D --57--------3-3-55-77--57-------3-3-03----|

Verse:

e ----------------------------------------------|
B ----------------------------------------------|
G ----------------------------------------------|
D ----------------------------------------------|
A ----------------------------------------------|
D -10-12-12-12-10-12-12-12-10-12-12-12-15-15-15-|

e ----------------------------------------------|
B ----------------------------------------------|
G ----------------------------------------------|
D ----------------------------------------------|
A ----------------------------------------------|
D -10-12-12-12-10-12-12-12-10-12-12-12-15-15-15-|

e -----------------------------------|
B -----------------------------------|
G -----------------------------------|
D -----------------------------------|
A -----------------------------------|
D -10-8-8-8-10-8-8-8-10-8-8-8-10-8-8-|

e ------------------------|
B ------------------------|
G --------------------5---|
D -----------------35-5-5-|
A -----------------35-3-5-|
D -3-5-5-5-3-5-5-5-35---5-|

e ----------------------------------------------|
B ----------------------------------------------|
G ----------------------------------------------|
D ----------------------------------------------|
A ----------------------------------------------|
D -10-12-12-12-10-12-12-12-10-12-12-12-15-15-15-|

e ----------------------------------------------|
B ----------------------------------------------|
G ----------------------------------------------|
D ----------------------------------------------|
A ----------------------------------------------|
D -10-12-12-12-10-12-12-12-10-12-12-12-15-15-15-|

e -----------------------------------|
B -----------------------------------|
G -----------------------------------|
D -----------------------------------|
A -----------------------------------|
D -10-8-8-8-10-8-8-8-10-8-8-8-10-8-8-|

e -------------------|
B -------------------|
G -------------------|
D -------------------|
A -------------------|
D -3-5-5-5-3-5-5-5-5-|

Chorus:

e -----------------------------------|
B -----------------------------------|
G ------------------5555555555555555-|
D -3333333333333333-5555555555555555-|
A -3333333333333333-3333333333333333-|
D -3333333333333333------------------|

e -----------------------------------|
B -----------------------------------|
G -----------------------------------|
D -55-555-555-555-588888888----------|
A -55-555-555-555-588888888-----5----|
D -55-555-555-555-588888888--057-750-|

e -----------------------------------|
B -----------------------------------|
G ------------------5555555555555555-|
D -3333333333333333-5555555555555555-|
A -3333333333333333-3333333333333333-|
D -3333333333333333------------------|

e -----------------------------------|
B -----------------------------------|
G -----------------------------------|
D -55-555-555-555-588888888----------|
A -55-555-555-555-588888888-----5----|
D -55-555-555-555-588888888--057-750-|

Then:

e ----------------------|
B ----------------------|
G -----7----------------|
D --57---57---3-3-55-77-|
A --57--------3-3-55-77-|
D --57--------3-3-55-77-|

Then repeat verse and chorus

Outro:

e --------------------------------------|
B --------------------------------------|
G ------5-----------------5-------------|
D --057-5--503-030355-057-5--503-030355-|
A --057-3--503-030355-057-3--503-030355-|
D --057----503-030355-057----503-030355-|

e ------------------------------------|
B ------------------------------------|
G ------5-----------------------------|
D --057-5--503-030355-0-0-0-0-0-0-3-3-|
A --057-3--503-030355-0-0-0-0-0-0-3-3-|
D --057----503-030355-0-0-0-0-0-0-3-3-|

End on:

e ---------------|
B ---------------|
G ---------------|
D --0------------|
A --0-(let ring)-|
D --0------------|

Thanks. Hope you like it. I'l be doing Artbreaker II soon :)
Tap to rate this tab
 
# A B C D E F G H I J K L M N O P Q R S T U V W X Y Z