Song name
# A B C D E F G H I J K L M N O P Q R S T U V W X Y Z

Kids In Glass Houses - Artbreaker Ii tab

This is based on the ver 1 tab which had the right idea but just far too many mistakes 
so heres an edited version;

'... when you never even use your heart'

e -----------------------------------|
B -----------------------------------|
G -----------------------------------|
D -55-555-555-555-588888888----------|
A -55-555-555-555-588888888-----3----|
D -55-555-555-555-588888888--035--53-|

e -----------------------------------|
B -----------------------------------|
G ------------------5555555555555555-|
D -3333333333333333-5555555555555555-|
A -3333333333333333-3333333333333333-|
D -3333333333333333------------------|

e --------------------------|
B --------------------------|
G --------------------------|
D -55-555-555-555-588888888-|
A -55-555-555-555-588888888-|
D -55-555-555-555-588888888-|

e --------------------------------------|
B --------------------------------------|
G --------------------------------------|
D ---------503-030355--------503-030355-|
A ------3--503-030355--------503-030355-|
D --035----503-030355-035----503-030355-|

e -----------------------------------------|
B -----------------------------------------|
G -----------------------------------------|
D ---------503-030355---------503-030355---|
A ------3--503-030355------3--503-030355---|
D --035----503-030355-035-----503-030355---|

e ---------------------------------------|
B --5-65----------8-5---------681086-----|
G ------75-5-5-5-5----7-575757------75-7-|
D --------7-7-7-7------------------------|
A ---------------------------------------|
D ---------------------------------------|

e -----------------------------------------------|
B -----6---6--------------------------1313131310-|
G --757-757-757--777799991010101010--------------|
D -----------------------------------------------|
A -----------------------------------------------|
D -----------------------------------------------|

e --12-1312--------------------15-12-----------1315(b)13--------|
B ---------1513--13--13--13--13------1513151315---------1513-15-|
G -------------14--14--14--14-----------------------------------|
D --------------------------------------------------------------|
A --------------------------------------------------------------|
D --------------------------------------------------------------|

e --------13------13--------------------------------1717171722(tremolo)\-|
B --151315--151315--151315--151515151717171718181818---------------------|
G -----------------------------------------------------------------------|
D -----------------------------------------------------------------------|
A -----------------------------------------------------------------------|
D -----------------------------------------------------------------------|

e ------------------------------------------------15-----------------|
B --------------1310------------1310----------------15---------------|
G --------10--------------10--------------------------15-------------|
D ----1012--1012------1012--1012------1012--1012---------------------|
A -------------------------------------------------------------------|
D -------------------------------------------------------------------|

e ------------------------------------------------------------|
B -----10-----1310-----10-----1310------10-----1310------14---|
G -1012---1012-----1012---1012------1012---1012------1214--14-|
D ------------------------------------------------------------|
A ------------------------------------------------------------|
D ------------------------------------------------------------|

e ------------------------------------------------------------|
B -----10-----1310-----10-----1310------10-----1310------14---|
G -1012---1012-----1012---1012------1012---1012------1214--14-|
D ------------------------------------------------------------|
A ------------------------------------------------------------|
D ------------------------------------------------------------|

(one the second 'whoa-oh')

e ---------------|
B ---------------|
G ----------5----|
D -0--8 --3--5---|
A -0--8--3--3----|
D -0--8--3-------|

e -----------------|
B -----------------|
G -7777---------5--|
D -xxxx0--8--3--5--|
A -55550--8--3--3--|
D -----0--8--3-----|

'I love the way'
e -------------|
B -------------|
G ----------3--|
D ----------3--|
A ----------3--|

e -----------------------------------|
B -----------------------------------|
G -----------------------------------|
D -55-555-555-555-588888888----------|
A -55-555-555-555-588888888-----5----|
D -55-555-555-555-588888888--057-750-|

e -----------------------------------|
B -----------------------------------|
G ------------------5555555555555555-|
D -3333333333333333-5555555555555555-|
A -3333333333333333-3333333333333333-|
D -3333333333333333------------------|

e --------------------------|
B --------------------------|
G --------------------------|
D -55-555-555-555-588888888-|
A -55-555-555-555-588888888-|
D -55-555-555-555-588888888-|

e --------------------------------------|
B --------------------------------------|
G --------------------------------------|
D ---------503-030355--------503-030355-|
A ------3--503-030355--------503-030355-|
D --035----503-030355-035----503-030355-|

e --------------------------------------|
B --------------------------------------|
G --------------------------------------|
D ---------503-030355--0--0--0--0--3-0--|
A ------3--503-030355--0--0--0--0--3-0--|
D --035----503-030355--0--0--0--0--3-0--|
Tap to rate this tab
# A B C D E F G H I J K L M N O P Q R S T U V W X Y Z