Song name
# A B C D E F G H I J K L M N O P Q R S T U V W X Y Z

Kids In The Way - Even Snakes Have Hearts tab

-------------------------------------------------------------------------------
			     Even Snakes Have Hearts - Kids In The Way
-------------------------------------------------------------------------------
Tabbed by:cjb2293

Intro
Guitar 1
e|------------------------------------| x4
B|------------------------------------|
G|--------------7---------------------|
D|-4-4--4--7-7--7-9-9-9--11-----------|
A|-4-4--4--7-7--5-9-9-9--11-----------|
D|-4-4--4--7-7----9-9-9--11-----------|

Guitar 2 (comes in after two of the previous riffs)
e|------------------------------------| x2
B|------------------------------------|
G|---6---6----------7------7-6--------|
D|-4---4---4--4-7-7----9-9------------|
A|------------------------------------|
D|------------------------------------|

Verse
Guitar 1 (holds note until chorus)
e|--------------------------|
B|--------------------------|
G|--------------------------|
D|-4------------------------|
A|-4------------------------|
D|-4------------------------|

Guitar 2 (i don't have this part figured out yet, i'll update the tab later)

Chorus
(same as intro!)



| /  slide up
| \  slide down
| h  hammer-on
| p  pull-off
| ~  vibrato
| +  harmonic
| x  Mute note
===============================================================================
Tap to rate this tab
 
# A B C D E F G H I J K L M N O P Q R S T U V W X Y Z