Song name
# A B C D E F G H I J K L M N O P Q R S T U V W X Y Z

Kids In The Way - Sugar tab

Kids In The Way
Sugar
Tuning low to high:  DbAbDbGbBbeb 
Tabber: Johan Hummelmose Enevoldsen

0:00
Intro

eb|------------------------x4------------------|
Bb|--------------------------------------------|
Gb|12----11----7-9----7-9----------------------|
Db|12-x3-11-x5-7-9-x2-7-9----------------------| 
Ab|10----9-----5-7----5-7----------------------|
Db|--------------------------------------------|

0:14
Vers - Not sure of the "5-5-4" thing
          PM--------------|     
eb|2-------------------------------------------|
Bb|5-------------------------------------------|
Gb|4---------------------------------4-------7-|
Db|2-x2---2----4----5----2-----5-5-4---7-7-5---|
Ab|2------2-x8-4-x4-5-x4-2-x8------------------|
Db|2------2----4----5----2---------------------|

0:28
          PM----|         PM----|   
eb|---------------------------------x2---------|
Bb|--------------------------------------------|
Gb|9-7-9------------9-7-9----------------------|
Db|9-7-9--4----5----9-7-9-5----7---------------| 
Ab|7-5-7--4-x4-5-x4-7-5-7-5-x4-7-x4------------|
Db|-------4----5----------5----7---------------|

0:42
Chorus
Strum fist part as you want

eb|----------x3--------------------------------|
Bb|--------------------------------------------|
Gb|9-7----------4----5----7--------------------|
Db|9-7-5-7-5----4-x6-5-x4-7-x4-2---------------|
Ab|7-5-5-7-5----2----3----5----2---------------|
Db|----5-7-5-------------------2---------------|

1:00
Vers - Not sure of the "5-5-4" thing
          PM--------------|   
eb|2-------------------------------------------|
Bb|5-------------------------------------------|
Gb|4---------------------------------4-------7-|
Db|2-x2---2----4----5----2-----5-5-4---7-7-5---|
Ab|2------2-x8-4-x4-5-x4-2-x8------------------|
Db|2------2----4----5----2---------------------|

1:14
          PM----|         PM------|
eb|---------------------------------x2--------|
Bb|-------------------------------------------|
Gb|9-7-9------------9-7-9---------------------|
Db|9-7-9--4----5----9-7-9-5----7--------------| 
Ab|7-5-7--4-x4-5-x4-7-5-7-5-x4-7-x4-----------|
Db|-------4----5----------5----7--------------|

1:28
Chorus - Strum fist part as you want

eb|----------x3-------------------------------|
Bb|-------------------------------------------|
Gb|9-7----------4----5----7-------------------|
Db|9-7-5-7-5----4-x8-5-x4-7-x4----------------|
Ab|7-5-5-7-5----2----3----5-------------------|
Db|----5-7-5----------------------------------|

1:43
Pre Bridge

eb|--------------------------x3---------------|
Bb|-------------------------------------------|
Gb|12----11----7-9----7-9---------------------|
Db|12-x3-11-x5-7-9-x2-7-9-x4------------------| 
Ab|10----9-----5-7----5-7---------------------|
Db|-------------------------------------------|

1:50
Bridge

eb|----------------x2-------------------------|
Bb|-------------------------------------------|
Gb|5----7-------------5----4------------------|
Db|5-x8-7-x8-2--------5-x8-4-x5---------------|
Ab|3----5----2-x16----3----2------------------|
Db|----------2--------------------------------|

2:08
chorus - Strum fist part as you want

eb|----------------------------x2-------------|
Bb|-------------------------------------------|
Gb|9-7----------4----5----7-------------------|
Db|9-7-5-7-5----4-x8-5-x4-7-x4----------------|
Ab|7-5-5-7-5----2----3----5-------------------|
Db|----5-7-5----------------------------------|


2:36
Outro - Repeat this untill song is done
eb|-------------------------------------------|
Bb|-------------------------------------------|
Gb|-------------------------------------------|
Db|2-----7----5-2-----7----5------------------|
Ab|2-x2--7-x2-5-2-x2--7-x2-5------------------|
Db|2-----7----5-2-----7----5------------------|
Tap to rate this tab
 
# A B C D E F G H I J K L M N O P Q R S T U V W X Y Z