Song name
# A B C D E F G H I J K L M N O P Q R S T U V W X Y Z

Kids In The Way - Farewell tab

First time doin one of these dont laugh. pretty accurate

intro(listen to song to figure out how to strum it)
E------------------------------|
B------------------------------|
G-7-------6--------------------|
D-7-------6------5-------7-----|
A-5-------4------5-------7-----|
E----------------3-------5-----|

verse, dont no if it is on keyboard so i used this...
E-----------------------------------------------------------------------|
B----------11------11---------11----11--------11-----11--------11---11--|
G-------11------11---------11-----11--------11-----11--------11---11----|
D-----9-------9----------9-------9--------7------7----------9----9------|
A--10------------------9----------------7----------------10-------------|
E-----------------------------------------------------------------------|

pre chorus
E---------------------|
B---------------------|
G---------------------|
D-10--10--10-**10--9--|x3 then
A-10--10--10-**10--9--|
E-8---8---8--**8---7--|

E--------------------|
B--------------------|
G--------------------|
D-10--11--12--13-----|
A-10--11--12--13-----|
E-8---9---10--11-----|

Chorus once again figure out the strumming
E---------------------------------------|
B---------------------------------------|
G---------------------------------------|
D-12--11--7---9-----12---11--14-----9---|
A-12--11--7---9-----12---11--14-----9---|
E-10--9---5---7-----10---9---12-----7---|

verse

bridge
E----------------------------------------------------------------|
B----------------------------------------------------------------|
G--\/--\/--\/-
Tap to rate this tab
# A B C D E F G H I J K L M N O P Q R S T U V W X Y Z