Song name
# A B C D E F G H I J K L M N O P Q R S T U V W X Y Z

Kids In The Way - Fiction tab

Play the Intro Twice the first time once all the others.

I think this is it If not I'll fix it.
The other tab was good but wasn't in the right tuning and I like 100% tabs.
This is in the right tuning and edited to be smaller so it takes up less paper 
should you want to print it.
If you don't like how I did it then do it yourself. 

Intro
Eb------------------------------------------|
Bb------------------------------------------|
Gb-----4-7-6---4-4---4--4--4----4-7-6----4--|
Db--/4-------4------7--7--7----4------(7)---|
Ab------------------------------------------|
Db------------------------------------------|
     ^---Let ring
Verse
Eb-------------------------------------------------------------------------|
Bb-------------------------------------------------------------------------|
Gb-------------------------------------------------------------------------|
Db-4-4-4-4-4-4-4-4-4-4-6-6-7-7-7-7-7-7-7-7\2-2-2-2-2-2-2-2/9-9-9-9-9-9-9-9-|
Ab-4-4-4-4-4-4-4-4-4-4-6-6-7-7-7-7-7-7-7-7\2-2-2-2-2-2-2-2/9-9-9-9-9-9-9-9-|
Db-4-4-4-4-4-4-4-4-4-4-6-6-7-7-7-7-7-7-7-7\2-2-2-2-2-2-2-2/9-9-9-9-9-9-9-9-|
   . . . . . . . . . . . . . . . . . . . . . . . . . . . . . . . . . . . .


Eb-----------------------------------------------------------------|
Bb-----------------------------------------------------------------|
Gb-----------------------------------------------------------------|
Db-4-4-4-4-4-4-6-6-7-7-7-7-7-7-7-7\2-2-2-2-2-2-2-2/9-9-9-9-9-9-9-9-| 3x
Ab-4-4-4-4-4-4-6-6-7-7-7-7-7-7-7-7\2-2-2-2-2-2-2-2/9-9-9-9-9-9-9-9-|
Db-4-4-4-4-4-4-6-6-7-7-7-7-7-7-7-7\2-2-2-2-2-2-2-2/9-9-9-9-9-9-9-9-|
   . . . . . . . . . . . . . . . . . . . . . . . . . . . . . . . .

Chorus

Eb--------------------------------------------|
Bb--------------------------------------------|
Gb-11-11-11/13\9-9-9-9-4-4-4/6-6-6------------| 
Db--x--x--x/-x\x-x-x-x-4-4-4/6-4-4---4-4-4-4--|
Ab--9--9--9/11\7-7-7-7-2-2-2/4-4-4---4-4-4-4--|
Db-----------------------------------4-4-4-4--|


Eb--------------------------------------|
Bb--------------------------------------|
Gb-11-11-11/13\9-9-9-9-4-4-4/6----------| 
Db--x--x--x/-x\x-x-x-x-4-4-4/6-4-4-4-4--|
Ab--9--9--9/11\7-7-7-7-2-2-2/4-4-4-4-4--|
Db-----------------------------4-4-4-4--|

Intro 1x

Verse

Chorus


Bridge
Eb-----------------------|
Bb-----------------------|
Gb-----------------------|
Db-4-2----11p9---9-----4-|
Ab-4-2---9-----9-----4---|
Db-4-2-9-----------4-----|


Eb----------------------|
Bb----------------------|
Gb----------------------|
Db-4-4-4-2-4--2-2-2-0-2-|
Ab-4-4-4-2-4--2-2-2-0-2-|
Db-4-4-4-2-4--2-2-2-0-2-|


Eb----------------------------------------------------|
Bb----------------------------------------------------|
Gb----4-4-4-4-4-xx-xx-6-6-6-6-6-6-6-6-7-7-7-7-6-6-6-6-|
Db-xx-4-4-4-4-4-xx-xx-4-4-4-4-4-4-4-4-5-5-5-5-4-4-4-4-|
Ab-xx-2-2-2-2-2-xx-xx-4-4-4-4-4-4-4-4-5-5-5-5-4-4-4-4-|
Db-xx-------------------------------------------------|

Intro 1x

Chorus

Outro
Eb------------------|         Eb-------------------|
Bb------------------|         Bb-------------------|
Gb-4-4-4/6----------|   2x    Gb-4-4-4/6-----------| 
Db-4-4-4/6-4-4-4-4--|         Db-4-4-4/6-4-4-4-4~--| 
Ab-2-2-2/4-4-4-4-4--|         Ab-2-2-2/4-4-4-4-4~--|
Db---------4-4-4-4--|         Db---------4-4-4-4~--|
                                    Let ring---^   
Tap to rate this tab
 
# A B C D E F G H I J K L M N O P Q R S T U V W X Y Z