Guitaretab - guitar tabs
Song name
# A B C D E F G H I J K L M N O P Q R S T U V W X Y Z

Kids In The Way - Phoenix With A Heartache tab

Intro Gtr. 1
Eb-----------------------------------------]
Bb-----------------------------------------]
Gb-----------------------------------------]
Db---0------5------9------5------4444-7777-]
Ab---0-x16--5-x16--9-x16--5-x8---4444-7777-]
Db---0------5------9------5------4444-7777-]

Intro Gtr. 2  3x	  4th time play…
Eb----------------[------------------------------------]
Bb----------------[------------------------------------]
Gb---7777-12-11---[--1212121212121212-11111111-9999----]
Db---xxxx--x--x---[---x-x-x-x-x-x-x-x--x-x-x-x-xxxx----]
Ab---5555-10--9---[--1010101010101010--9-9-9-9-7777----]
Db----------------[------------------------------------]
[ Tab from: http://www.guitaretab.com/k/kids-in-the-way/69270.html ]
Verse (Either Guitar)
Eb------------------------------------------]
Bb------------------------------------------]
Gb------------------------------------------]
Db---99-999-999-999-977-777-777-777-7-------]1x
Ab---99-999-999-999-977-777-777-777-7-------]
Db---99-999-999-999-977-777-777-777-7-------]
     .. ... ... ... ... ... ... ... .
Eb-----------------------------------------]
Bb-----------------------------------------]
Gb-----7---7---7---7---6---6---6---6/7-----]
Db---99-999-999-999-977-777-777-777--------]3x
Ab---99-999-999-999-977-777-777-777--------]
Db---99-999-999-999-977-777-777-777--------]
     .. ... ... ... ... ... ... ...
Chorus 1.
  Both guitars play 1st part	   guitar 1	guitar 2
Eb-------------------------------[-----------][--------------------------------]
Bb-------------------------------[-----------][--------------------------------]
Gb-------------------------------[-----------][-1212121212121212-11111111-9999-]
Db---0------5------9------5------[-4444-7777-][--x-x-x-x-x-x-x-x--x-x-x-x-xxxx-]
Ab---0-x16--5-x16--9-x16--5-x8---[-4444-7777-][-1010101010101010--9-9-9-9-7777-]
Db---0------5------9------5------[-4444-7777-][--------------------------------]

Eb----------------------------------------------------------]
Bb----------------------------------------------------------]
Gb----------------------------------------------------------]
Db---12~---------5~----------9~----------5555555555555555---]
Ab---12~---------5~----------9~----------5555555555555555---]
Db---12~---------5~----------9~----------5555555555555555---]
  Gtr. 2                                 ................
Eb-------------------------------]
Bb-------------------------------]
Gb-7~/12-11-7~/12-11-7~/12-11-9~-]
Db-x~/-x--x-x~/-x--x-x~/-x--x-x~-]
Ab-5~/10--9-5~/10--9-5~/10--9-7~-]
Db-------------------------------]
Then play chorus part 1 as an interlude.  Then...

Verse
Chorus 1
Chorus 2
Chorus 1 (but it is shorter this time)

After 2nd chorus he plays this little riff.

Eb--------9-----9-----9-------------------]
Bb-----10----10----10---------------------]
Gb---9-----9-----9------------------------]
Db-9--------------------------------------]
Ab----------------------------------------]
Db----------------------------------------]

Solo Thingy
  2x
Eb--------------------------------------]
Bb--------------------------------------]
Gb-----6----6h76h7p6-----6-----6h76h7p6-]
Db-999--999----------777---777----------]2x
Ab-999--999----------777---777----------]
Db-999--999----------777---777----------]

Bridge:

Eb-----------------------------------------]
Bb-----------------------------------------]
Gb-----------------------------------------]
Db-99999999-77777777-55555555-0-44-55-0000-]x2
Ab-99999999-77777777-55555555-0-44-55-0000-]
Db-99999999-77777777-55555555-0-44-55-0000-]
Related for Phoenix With A Heartache tab
Advertisement will be closed in 10 seconds