Song name
# A B C D E F G H I J K L M N O P Q R S T U V W X Y Z

Kids In The Way - My Little Nightmare tab

Artist: Kids In the Way
Song: My Little Nightmare (Intro/Chorus)
Album: A Love Hate Masquerade
Copyright Flicker Records


|------------------------------|
|------------------------------|
|------------------------------|
|11-11-11-10--7--7--6--6-7777--|
|11-11-11-10--7--7--6--6-7777--|
|9--9--9--8---5--5--4--4-5555--| 3x

|---------------------------------|
|---------------------------------|
|---------------------------------|
|11-11-11-10--7-7-6666-7777-------|
|11-11-11-10--7-7-6666-7777-------|
|9--9--9--8---5-5-4444-5555-------|

Still figuring out the rest, the rhythm might not be right, but the notes are. The only 
I don't have the rest is because I can't hear the verse very well, but I think it's just 
chords. I'm also working on Letting Go and Sugar.
Tap to rate this tab
# A B C D E F G H I J K L M N O P Q R S T U V W X Y Z