Guitaretab - guitar tabs
Song name
# A B C D E F G H I J K L M N O P Q R S T U V W X Y Z

Kids Like Us - Fuck The Art Bar tab

Artist: Kids Like Us
Song: Fuck the Art Bar
Album: The 80's Are Dead
Tuning: Drop D

I saw this on another tab under the wrong name. This is Fuck the Art Bar

Intro x4         x1                  x2              x1
|---------------|-------------------|---------------|------------------|
|---------------|-------------------|---------------|------------------|
|--------777777-|-------------------|--------777777-|------------------|
|-333-00-xxxxxx-|-33333333333-22222-|-333-00-xxxxxx-|33333333333-22222-|
|-333-00-555555-|-33333333333-22222-|-333-00-555555-|33333333333-22222-|
|-333-00--------|-33333333333-22222-|-333-00--------|33333333333-22222-|


Verse x4
|-----------------------|
|-----------------------|
|-----------------------|
|-0xxxx0xxxx0xxxx6666-3-|
|-0xxxx0xxxx0xxxx6666-3-|
|-0xxxx0xxxx0xxxx6666-3-|

Fill x2
|------------------------------------------------|
|------------------------------------------------|
|------7-888-------------888------7-888----------|
|-0000-7-888-6-0-6-0-6-0-888-0000-7-888-5555-666-|
|-0000-5-666-6-0-6-0-6-0-666-0000-5-666-5555-666-|
|-0000-------6-0-6-0-6-0-----0000-------5555-666-|
[ Tab from: http://www.guitaretab.com/k/kids-like-us/107108.html ]
2-Step x1
|---------------------------------------------------|
|---------------------------------------------------|
|------------------8-6-8-10------------------8-7777-|
|-0000-6-5555-0000-x-x-x--x-0000-6-5555-0000-x-xxxx-|
|-0000-6-5555-0000-6-5-6--8-0000-6-5555-0000-6-5555-|
|-0000-6-5555-0000----------0000-6-5555-0000--------|
PM.....       ....          ....        ....

Pt. 2 x2
|----------------------------|
|----------------------------|
|------8-6-8-10-------8-7777-|
|-0000-x-x-x--x-0000--x-xxxx-|
|-0000-6-5-6--8-0000--6-5555-|
|-0000----------0000---------|
PM.....         ....

Fill x1
|------------------------------|
|------------------------------|
|-888-777-888-777-555-333-55-3-|
|-xxx-xxx-xxx-xxx-xxx-xxx-xx-x-|
|-666-555-666-555-333-111-33-1-|
|------------------------------|

Breakdown x3
|---------------------------------------|
|---------------------------------------|
|----------888-777-888-777-555-333-55-3-|
|-00000000-xxx-xxx-xxx-xxx-xxx-xxx-xx-x-|
|-00000000-666-555-666-555-333-111-33-1-|
|-00000000------------------------------|
PM........

Ending x1
|----------|
|----------|
|----------|
|-0--------|
|-0--------|
|-0--------|

Related for Fuck The Art Bar tab
Fuck The Art Bar chords by Kids Like Us